Guitar Tabs
song title    band name

Join Us Today!

Don't strum alone...
be a part of the largest online Christian music community. Browse thousands of guitar tabs and chat w/ musicians like yourself.


It's Free!

This tab has been rated a 5.00 out of 5 for accuracy. (6 votes)Sorry, but you must be logged in to rate this tab.
Click here to log-in, or you can click here to register.
(Registration is free)

All songs owned by corresponding publishing company. If you make copies of any song on this website, be sure to report your usage to CCLI.
Submitted by: ryan_grooms22

Artist:Kutless
Album:Strong Tower
Song:Better Is One Day
Tuning:Drop C#

Hey guyís Iím tabbing cause there isnít a full tab on here. 
But there is good tabs on here for this song though donít get me wrong
Itís my second tab so if any mess upís comment please!!!!!

Intro/Verse 1:4x

E)-----------------------------------3-3-3-3-3-3-3-3--5-5-5-5-5-5-5-5--)
B)--8-8-8-8-8-8-8-8-8-8-8-8-8-8-8-8--3-3-3-3-3-3-3-3--5-5-5-5-5-5-5-5--)
G)--7-7-7-7-7-7-7-7-7-7-7-7-7-7-7-7--5-5-5-5-5-5-5-5--7-7-7-7-7-7-7-7--)
D)--5-5-5-5-5-5-5-5-5-5-5-5-5-5-5-5--5-5-5-5-5-5-5-5--7-7-7-7-7-7-7-7--)
A)-----------------------------------3-3-3-3-3-3-3-3--5-5-5-5-5-5-5-5--)
D)---------------------------------------------------------------------)

Chorus:4x

E)--3-3-3-3-3-3-3-3-------------------)
B)--3-3-3-3-3-3-3-3--3-3-3-3-3-3-3-3--)
G)--5-5-5-5-5-5-5-5--2-2-2-2-2-2-2-2--)
D)--5-5-5-5-5-5-5-5--0-0-0-0-0-0-0-0--)
A)--3-3-3-3-3-3-3-3--0-0-0-0-0-0-0-0--)
D)-------------------0-0-0-0-0-0-0-0--)

Solo:

E)--------------------------------------)
B)--------------------------------------)
G)--4-4-2-4-4h5p4-2-4-2-------------5-4-)
D)-----------------------5-5-4--5-------)
A)------------------------3------5------)
D)--------------------------------------)

2nd verse guitar 1 plays the same thing
But guitar 2 plays
This the 1st and 3rd time    

E)--------)                                   
B)--------)                                   
G)--5---7-)                                  
D)--5---7-)                                   
A)--3---5-)                                   
D)--------)                                     

Then 2nd and 4th time

E)------------------------------------)
B)------------------------------------)
G)-------------------7-7-7-7-7-7-7-7--) this part sounds right
D)--0-0-0-0-0-0-0-0--7-7-7-7-7-7-7-7--) but i could be wrong
A)--0-0-0-0-0-0-0-0--5-5-5-5-5-5-5-5--)
D)--0-0-0-0-0-0-0-0-------------------)

Chorus 4x

Bridge:

this part twice:

E)---------------3-3-3-3-3-3-3-3------------------------3-3-3-3-3-3-3-3-)
B)------------3--3-3-3-3-3-3-3-3-------------3-3-3-3-3--3-3-3-3-3-3-3-3-)
G)-4-4-4-4-4--2--5-5-5-5-5-5-5-5--4-4-4-4-4--2-2-2-2-2--5-5-5-5-5-5-5-5-)
D)-2-2-2-2-2--0--5-5-5-5-5-5-5-5--2-2-2-2-2--0-0-0-0-0--5-5-5-5-5-5-5-5-)
A)-2-2-2-2-2--0--3-3-3-3-3-3-3-3--2-2-2-2-2--0-0-0-0-0--3-3-3-3-3-3-3-3-)
D)-2-2-2-2-2--0-------------------2-2-2-2-2--0-0-0-0-0------------------)

then this:

E)-----------------------3-3-3-3-3-3-3-3-3-3-3-3-3-3-3-3--5-5-5-5-5-5-5-5-)
B)------------3-3-3-3-3--3-3-3-3-3-3-3-3-3-3-3-3-3-3-3-3--5-5-5-5-5-5-5-5-)
G)-4-4-4-4-4--2-2-2-2-2--5-5-5-5-5-5-5-5-5-5-5-5-5-5-5-5--7-7-7-7-7-7-7-7-)
D)-2-2-2-2-2--0-0-0-0-0--5-5-5-5-5-5-5-5-5-5-5-5-5-5-5-5--7-7-7-7-7-7-7-7-)
A)-2-2-2-2-2--0-0-0-0-0--3-3-3-3-3-3-3-3-3-3-3-3-3-3-3-3--5-5-5-5-5-5-5-5-)
D)-2-2-2-2-2--0-0-0-0-0---------------------------------------------------)

Chorus:4x
Outro Part of Chorus:

E)-3-----)
B)-3--3--)
G)-5--2--)
D)-5--0--)Play this 4X
A)-3--0--)
D)----0--)

End the song on this chord

E)---)
B)-8-)
G)-7-)
D)-5-)
A)-5-)
D)-5-)

that's it hope it help's some
it sounds 100% correct to me
but any mess up's please comment!!!!

-ryan_grooms22 



Comments about this tab

ryan_grooms22 - 2005-06-04

hey guys it's me again please comment on this because i like to know what other people think thanks
god bless
-ryan_grooms22


emeryguitar - 2005-07-01

here's a comment, capitalize God

God Bless,
Shane


ryan_grooms22 - 2005-07-03

thanks but i wasn't talking about that i was talking about my tab and i don't know what your problem is cause you sound like your trying to get smart
GOD BLESS
-ryan_grooms22


isaiah_six - 2005-07-13

nice job. god bless.


ryan_grooms22 - 2005-07-16

thanks finally somebody who actuallty commits
thanks peace and god bless
-ryan_grooms22


Falcon-fever777 - 2005-07-25

Good job man!


Spacey18 - 2005-09-02

hey you got the intro/chorus wrong its more like this:
e------------------------------------
B------------------------------------
G-11-11-11-11-11/6-6-6-6-/8-8-8-8-8-
D--9--9--9--9--9/4-4-4-4-/6-6-6-6-6-
A
E
then do that again but after 6/4 slide down to 4/2 then up back to 6/4..try it


Spacey18 - 2005-09-02

wait n/m im thinking of draw me close...duh srry


lone_wanderer - 2005-09-19

dude, just letting you know that the tuning you used is drop D, not drop C#. just letting you know for future reference. God bless and good tabbing!


ryan_grooms22 - 2005-09-19

i know but i said at first drop c# so i figured that if you guys new that then you guys could go from their sorry about that this song is in dropc#
thanks for showning me god bless
-ryan_grooms22


fenderfreak316 - 2005-12-28

Ok i am new to this stuff but im trying to learn but can any of you tell me what this dropC and stuff is cauz its really beyond me! Thank You ~ God Bless!


Surfguy960 - 2006-03-12

i think that drop c is CGCFAd....i don't know why or how but thats what one guy put when he tabbed fearless by falling up...hope this helped


Surfguy960 - 2006-03-12

haha...dude i didn't realize you asked this question in 2005...you've probably already figured it out then....later


Reli3ntk - 2006-08-12

Actually i have the book i cant write it out but this song, belive it or not is in drop B...yea sounds a bit crazy but its true.
God Bless


Add a comment/correction

Complimentary Christian Ringtones
Dadamobile and CGR have teamed up to bring your favorite Christian artists right to your phone. Sign up today and get 10 complementary ringtones!
Tab Country
Did you know CGR has a sister site w/ country guitar tabs? Well we do! Its called Tab Country. It has a great archive with a lot of country tabs.
Rockin Tabs
Are you looking for a site that has rock guitar tabs? Then Rockintabs.com is the place for you. It is a budding site with many rock guitar tabs. Submit your tab today.
Tab Gallery
Tab Gallery has a compilation of christian, rock, and country tabs all in one place. Come visit us.