Guitar Tabs
song title    band name

Join Us Today!

Don't strum alone...
be a part of the largest online Christian music community. Browse thousands of guitar tabs and chat w/ musicians like yourself.


It's Free!

Grammatrain - Pain

This tab has been rated a 4.00 out of 5 for accuracy. (1 vote)Sorry, but you must be logged in to rate this tab.
Click here to log-in, or you can click here to register.
(Registration is free)

All songs owned by corresponding publishing company. If you make copies of any song on this website, be sure to report your usage to CCLI.
Artist:Grammatrain
Song:Pain
Album: Flying

Drop D tuning-6 string D


Intro + Verse:
    Dminor        Dsus2    
E|----1--------------0------0-----------|
B|----3------3-------3---------3--------|
G|*---2---------2----2-------------2---*|
D|*---0--------------0-----------------*|
A|--------------------------------------|
D|--------------------------------------|

He strums this chord during the verse
E|-----|
B|-----|
G|-----|
D|--0--|
A|--0--|
D|--0--|

Chorus:
                                  slide
A|*------------3-5---5-5-5-5-5-5-5-5/7\5-5-5-5--5---5-3*|
D|*--0---0-3-5----------------------------------5---5-3*|
play the verse chord from above at end of chorus
when chorus is played, the 2nd and fourth times, the last chord is left
out
After 2nd chorus:
   Dmi   Dsus2  Dmi7    Dmi6
E|--1--1--0-------8--8---7----|
B|--3--3--3-------6--6---6----|
G|--2--2--2-------7--7---7----|
D|--0--0--0---0---0--0---0--0-|
A|----------------------------|
D|----------------------------|
then play:
6(D)|*--0---0-0-3p0-0-0---0-0-0-5--7---0---0-0-3p0-0-0---0-0-0-5--3*|
p=pulloff

i don't have the solo....sorry

hombre321@yahoo.com

----------------------------------------------------------
Solo Tabbed by: Richard Richardson e-mail: ddson@yahoo.com
----------------------------------------------------------
This solo is all using wah pedal

E-------------------------------------------------------------
B---------------------------15-13-15---------15-13-15---------
G--7-5-7--------7-5-7----------------14---12----------14--12--
D--------7------------7-----------------15-----------------15-
A----------8-5----------8-5-----------------------------------
D-------------------------------------------------------------

Comments about this tab

No comments/corrections found. Add your own

Complimentary Christian Ringtones
Dadamobile and CGR have teamed up to bring your favorite Christian artists right to your phone. Sign up today and get 10 complementary ringtones!
Tab Country
Did you know CGR has a sister site w/ country guitar tabs? Well we do! Its called Tab Country. It has a great archive with a lot of country tabs.
Rockin Tabs
Are you looking for a site that has rock guitar tabs? Then Rockintabs.com is the place for you. It is a budding site with many rock guitar tabs. Submit your tab today.
Tab Gallery
Tab Gallery has a compilation of christian, rock, and country tabs all in one place. Come visit us.