Guitar Tabs
song title    band name

Join Us Today!

Don't strum alone...
be a part of the largest online Christian music community. Browse thousands of guitar tabs and chat w/ musicians like yourself.


It's Free!

Audio Adrenaline - I'm Not the King

This tab has been rated a 4.00 out of 5 for accuracy. (1 vote)Sorry, but you must be logged in to rate this tab.
Click here to log-in, or you can click here to register.
(Registration is free)

All songs owned by corresponding publishing company. If you make copies of any song on this website, be sure to report your usage to CCLI.
"I'M NOT THE KING" 
by Audio Adrenaline
	(c. 1996 Forefront)
from the album "BLOOM"
 (c. 1996 Forefront)
as played by Nathan Moussa
	(http://www.geocities.com/SunsetStrip/3960)

Intro           |mute these notes|               |mute these notes|
| |--------------------------------|--------------------------------|
| |--------------------------------|--------------------------------|
|4|--------------------------------|--------------------------------|
|4|--------------------------------|--------------------------------|
| |--------5/7---7-----------------|--------5/7---7-----------------|
| |0---0-----------0-0-0-0-3-0-3---|0---0-----------0-0-0-0-3-0-3---|
   1 e & a 2 e & a 3 e & a 4 e & a  1 e & a 2 e & a 3 e & a 4 e & a
                 |mute these notes|              |mute these notes|
| |--------------------------------|--------------------------------|
| |--------------------------------|--------------------------------|
|4|--------------------------------|--------------------------------|
|4|--------------------------------|--------------------------------|
| |--------5/7---7-----------------|--------5/7---7-----------------|
| |0---0-----------0-0-0-0-3-0-3---|0---0-----------0-0-0-0-3-0-3---|
   1 e & a 2 e & a 3 e & a 4 e & a  1 e & a 2 e & a 3 e & a 4 e & a
                |mute these notes|
| |--------------------------------|--------------------------------|
| |--------------------------------|--------------------------------|
|4|--------------------------------|--------------------------------|
|4|--------------------------------|--------------------------------|
| |--------5/7---7-----------------|--------------------------------|
| |0---0-----------0-0-0-0-3-0-3---|--0-0-0-3-0-3-------------------|
   1 e & a 2 e & a 3 e & a 4 e & a  1 e & a 2 e & a 3 e & a 4 e & a
Verse
| |--------------------------------|--------0-----------------------|
| |------------3-------------------|------------0-------------------|
|4|--------1-----------------------|--------------------3-----------|
|4|--------------------------------|--------------------------------|
| |--------------------------------|--------------------------------|
| |0---------------------------0---|2-------------------------------|
   1 e & a 2 e & a 3 e & a 4 e & a  1 e & a 2 e & a 3 e & a 4 e & a
| |--------------------------------|--------0-----------------------|
| |------------3-------------------|------------0-------------------|
|4|--------1-----------------------|--------------------3-----------|
|4|--------------------------------|--------------------------------|
| |--------------------------------|--------------------------------|
| |0---------------------------0---|2-------------------------------|
   1 e & a 2 e & a 3 e & a 4 e & a  1 e & a 2 e & a 3 e & a 4 e & a
| |--------------------------------|--------0-----------------------|
| |------------3-------------------|------------0-------------------|
|4|--------1-----------------------|--------------------3-----------|
|4|--------------------------------|--------------------------------|
| |--------------------------------|--------------------------------|
| |0---------------------------0---|2-------------------------------|
   1 e & a 2 e & a 3 e & a 4 e & a  1 e & a 2 e & a 3 e & a 4 e & a
                                                             scratch
| |--------------------------------|--------0-----------------------|
| |------------3-------------------|------------0-------------------|
|4|--------1-----------------------|--------------------3-----------|
|4|--------------------------------|--------------------------------|
| |--------------------------------|--------------------------------|
| |0---------------------------0---|2-------------------------------|
   1 e & a 2 e & a 3 e & a 4 e & a  1 e & a 2 e & a 3 e & a 4 e & a
| |--------------------------------|--------------------------------|
| |--------------------------------|--------------------------------|
|4|--------------------------------|--------------------------------|
|4|--------------------------------|--------------------------------|
| |7------/10--7---4-------5-------|--------5/7---7-----------------|
| |--------------------------------|0---0-----------0-0-0-0-3-0-3---|
   1 e & a 2 e & a 3 e & a 4 e & a  1 e & a 2 e & a 3 e & a 4 e & a
| |--------------------------------| |--------------------------------
|4|--------------------------------|4|--------------------------------
| |--------5/7---7-----------------| |0---0-----------0-0-0-0-3-0-3---
   1 e & a 2 e & a 3 e & a 4 e & a
Bridge
| |--------------------------------|--------------------------------|
| |--------------------------------|--------------------------------|
|4|--------------------------------|--------------------------------|
|4|------------REST----------------|------------REST----------------|
| |--------------------------------|--------------------------------|
| |--------------------------------|--------------------------------|
   1 e & a 2 e & a 3 e & a 4 e & a  1 e & a 2 e & a 3 e & a 4 e & a
| |--------------------------------|--------------------------------|
| |--------------------------------|--------------------------------|
|4|--------------------------------|--------------------------------|
|4|--------------------------------|--------------------------------|
| |--------5/7---7-----------------|--------5/7---7-----------------|
| |0---0-----------0-0-0-0-3-0-3---|0---0-----------0-0-0-0-3-0-3---|
   1 e & a 2 e & a 3 e & a 4 e & a  1 e & a 2 e & a 3 e & a 4 e & a
| |--------------------------------|--------------------------------|
| |--------------------------------|--------------------------------|
|4|--------------------------------|--------------------------------|
|4|------------REST----------------|------------REST----------------|
| |--------------------------------|--------------------------------|
| |--------------------------------|--------------------------------|
   1 e & a 2 e & a 3 e & a 4 e & a  1 e & a 2 e & a 3 e & a 4 e & a
| |--------------------------------|--------------------------------|
| |--------------------------------|--------------------------------|
|4|--------------------------------|--------------------------------|
|4|--------------------------------|--------------------------------|
| |--------5/7---7-----------------|--------5/7---7-----------------|
| |0---0-----------0-0-0-0-3-0-3---|0---0-----------0-0-2---3---4---|
   1 e & a 2 e & a 3 e & a 4 e & a  1 e & a 2 e & a 3 e & a 4 e & a
Chorus
| |--------------------------------|--------------------------------|
| |--------------------------------|--------------------------------|
|4|--------2---2---2---2-----------|2---2---2---2-------------------|
|4|--------1---1---1---2-----------|1---1---1---2-------------------|
| |0---0---0---0---0---0---0---0---|0---0---0---0---0---------------|
| |--------------------------------|--------------------2---3---4---|
   1 e & a 2 e & a 3 e & a 4 e & a  1 e & a 2 e & a 3 e & a 4 e & a
| |--------------------------------|--------------------------------|
| |--------------------------------|--------------------------------|
|4|--------2---2---2---2-----------|2---2---2---2-------------------|
|4|--------1---1---1---2-----------|1---1---1---2-------------------|
| |0---0---0---0---0---0---0---0---|0---0---0---0---0---------------|
| |--------------------------------|--------------------3---2---0---|
   1 e & a 2 e & a 3 e & a 4 e & a  1 e & a 2 e & a 3 e & a 4 e & a
| |--------------------------------|--------------------------------|
| |--------------------------------|--------------------------------|
|4|--------------------------------|--------------------------------|
|4|--------8---8---8---9-----------|8---8---8---9-------------------|
| |--------7---7---7---7-----------|7---7---7---7-------------------|
| |0---0---0---0---0---0---0---0---|0---0---0---0-------------------|
   1 e & a 2 e & a 3 e & a 4 e & a  1 e & a 2 e & a 3 e & a 4 e & a
- Verse 
Bridge 2                                                  scratches
| |--------------------------------|--------------------------------|
| |--------------------------------|--------------------------------|
|4|--------------------------------|------------------------x-x-x---|
|4|------------REST----------------|----------------------x-x-x-x---|
| |--------------------------------|--------------------------------|
| |--------------------------------|--------------------------------|
   1 e & a 2 e & a 3 e & a 4 e & a  1 e & a 2 e & a 3 e & a 4 e & a
                                            ^ = bend up and back down
| |--------------------------------|--------------------------------|
| |--------8---------------8---8---|--------8---------------10^-7---|
|4|7h9---x-7---7-----9---x-7---7---|7h9---x-7---7-----9---x-9-^-----|
|4|--------------------------------|--------------------------------|
| |--------------------------------|--------------------------------|
| |--------------------------------|--------------------------------|
   1 e & a 2 e & a 3 e & a 4 e & a  1 e & a 2 e & a 3 e & a 4 e & a
                                                         scratches
| |--------------------------------|--------------------------------|
| |--------------------------------|--------------------------------|
|4|--------------------------------|--------------------x-x-----x-x-|
|4|------------REST----------------|------------REST----x-x-x---x-x-|
| |--------------------------------|--------------------------------|
| |--------------------------------|--------------------------------|
   1 e & a 2 e & a 3 e & a 4 e & a  1 e & a 2 e & a 3 e & a 4 e & a
| |--------------------------------|--------------------------------|
| |--------8---------------8---8---|--------8-----------------------|
|4|7h9---x-9---7-----9---x-9---9---|7h9---x-9---9\\-----------------|
|4|--------------------------------|--------------------------------|
| |--------------------------------|--------------------------------|
| |--------------------------------|--------------------2---3---4---|
   1 e & a 2 e & a 3 e & a 4 e & a  1 e & a 2 e & a 3 e & a 4 e & a
Chorus 2
| |--------------------------------|--------------------------------|
| |--------------------------------|--------------------------------|
|4|--------2---2---2---2-----------|2---2---2---2-------------------|
|4|--------1---1---1---2-----------|1---1---1---2-------------------|
| |0---0---0---0---0---0---0---0---|0---0---0---0---0---------------|
| |--------------------------------|--------------------2---3---4---|
   1 e & a 2 e & a 3 e & a 4 e & a  1 e & a 2 e & a 3 e & a 4 e & a
| |--------------------------------|--------------------------------|
| |--------------------------------|--------------------------------|
|4|--------2---2---2---2-----------|2---2---2---2-------------------|
|4|--------1---1---1---2-----------|1---1---1---2-------------------|
| |0---0---0---0---0---0---0---0---|0---0---0---0---0---------------|
| |--------------------------------|--------------------3---2---0---|
   1 e & a 2 e & a 3 e & a 4 e & a  1 e & a 2 e & a 3 e & a 4 e & a
| |--------------------------------|--------------------------------|
| |--------------------------------|--------------------------------|
|4|--------------------------------|--------------------------------|
|4|--------8---8---8---9-----------|8---8---8---9-------------------|
| |--------7---7---7---7-----------|7---7---7---7-------------------|
| |0---0---0---0---0---0---0---0---|0---0---0---0---0---3---2---0---|
   1 e & a 2 e & a 3 e & a 4 e & a  1 e & a 2 e & a 3 e & a 4 e & a
| |--------------------------------|--------------------------------|
| |--------------------------------|--------------------------------|
|4|--------------------------------|--------------------------------|
|4|--------8---8---8---9-----------|8---8---8---9-------------------|
| |--------7---7---7---7-----------|7---7---7---7-------------------|
| |0---0---0---0---0---0---0---0---|0---0---0---0---0---2---3---4---|
   1 e & a 2 e & a 3 e & a 4 e & a  1 e & a 2 e & a 3 e & a 4 e & a
| |--------------------------------|--------------------------------|
| |--------------------------------|--------------------------------|
|4|--------2---2---2---2-----------|2---2---2---2-------------------|
|4|--------1---1---1---2-----------|1---1---1---2-------------------|
| |0---0---0---0---0---0---0---0---|0---0---0---0---0---------------|
| |--------------------------------|--------------------2---3---4---|
   1 e & a 2 e & a 3 e & a 4 e & a  1 e & a 2 e & a 3 e & a 4 e & a
| |--------------------------------|--------------------------------|
| |--------------------------------|--------------------------------|
|4|--------2---2---2---2-----------|2---2---2---2-------------------|
|4|--------1---1---1---2-----------|1---1---1---2-------------------|
| |0---0---0---0---0---0---0---0---|0---0---0---0---0---------------|
| |--------------------------------|--------------------3---2---0---|
   1 e & a 2 e & a 3 e & a 4 e & a  1 e & a 2 e & a 3 e & a 4 e & a
| |--------------------------------|--------------------------------|
| |--------------------------------|--------------------------------|
|4|--------------------------------|--------------------------------|
|4|--------8---8---8---9-----------|8---8---8---9-------------------|
| |--------7---7---7---7-----------|7---7---7---7-------------------|
| |0---0---0---0---0---0---0---0---|0---0---0---0---0---3---2---0---|
   1 e & a 2 e & a 3 e & a 4 e & a  1 e & a 2 e & a 3 e & a 4 e & a
| |--------------------------------|--------------------------------|
| |--------------------------------|--------------------------------|
|4|--------------------------------|--------------------------------|
|4|--------8---8---8---9-----------|8---8---8---8---8---8---8---9---|
| |--------7---7---7---7-----------|7---7---7---7---7---7---7---7---|
| |0---0---0---0---0---0---0---0---|0---0---0---0---0---0---0---0---|
   1 e & a 2 e & a 3 e & a 4 e & a  1 e & a 2 e & a 3 e & a 4 e & a
Solo
| |----------------------------12--|--------------------------------|
| |--------------------15----------|----15--------------------------|
|4/12----------14^-----------------|------------15------14--12------|
|4|--------------------------------|----------------------------14--|
| |--------------------------------|--------------------------------|
| |--------------------------------|--------------------------------|
   1 e & a 2 e & a 3 e & a 4 e & a  1 e & a 2 e & a 3 e & a 4 e & a
| |----------------------------12--|------------15^-----15----------|
| |--------------------15----------|----14--12----------------------|
|4/12----------14^-----------------|--------------------------------|
|4|--------------------------------|--------------------------------|
| |--------------------------------|--------------------------------|
| |--------------------------------|--------------------------------|
   1 e & a 2 e & a 3 e & a 4 e & a  1 e & a 2 e & a 3 e & a 4 e & a
| |----------------------------12--|--------------------------------|
| |--------------------15----------|----15--------------------------|
|4/12----------14^-----------------|------------15------14-121412---|
|4|--------------------------------|----------------------------14--|
| |--------------------------------|--------------------------------|
| |--------------------------------|--------------------------------|
   1 e & a 2 e & a 3 e & a 4 e & a  1 e & a 2 e & a 3 e & a 4 e & a
| |--------------------------------|--------------------------------|
| |--------------------------------|----------------8-8-----8---8---|
|4|12----------14^-----14-121412---|------------9-7-7-7-9-7-7---7---|
|4|----------------------------14--|--------------------------------|
| |--------------------------------|--------------------------------|
| |--------------------------------|--------------------------------|
   1 e & a 2 e & a 3 e & a 4 e & a  1 e & a 2 e & a 3 e & a 4 e & a
| |--------------------------------|| |--------------------------------|
|4|9-------------------------------||4|------------------------5-------|
| |----------------5--/7-----------|| |--------------------------------|
   1 e & a 2 e & a 3 e & a 4 e & a
| |--------------------------------|--------------------------------|
| |--------------------------------|--------------------------------|
|4|--------------------------------|--------------------------------|
|4|--------------------------------|--------------------------------|
| |--------5/7---7-----------------|--------5/7---7-----------------|
| |0---0-----------0-0-0-0-3-0-3---|0---0-----------0-0-0-0-3-0-3---|
   1 e & a 2 e & a 3 e & a 4 e & a  1 e & a 2 e & a 3 e & a 4 e & a
- Chorus 2 (a variation)- Intro (a variation)

Comments about this tab

ryanxxxx - 2004-12-14

yes the bubbles of time


guitarhockeyman - 2005-02-02

The INTRO goes like this:

A|-----5/7-----------|
E|-0-0-----0-00000-3-|


John_prs_guitar - 2005-12-30

----7/9-----
-2--x/x--5--
-2--5/7--5--
-0-------3--
E G
Those are the intro notes. You can figure out the number of strums,etc. That G is palm muted. And i like to slide that partial from the second fret instead of the fifth, but that's just the way i do it


Add a comment/correction

Complimentary Christian Ringtones
Dadamobile and CGR have teamed up to bring your favorite Christian artists right to your phone. Sign up today and get 10 complementary ringtones!
Tab Country
Did you know CGR has a sister site w/ country guitar tabs? Well we do! Its called Tab Country. It has a great archive with a lot of country tabs.
Rockin Tabs
Are you looking for a site that has rock guitar tabs? Then Rockintabs.com is the place for you. It is a budding site with many rock guitar tabs. Submit your tab today.
Tab Gallery
Tab Gallery has a compilation of christian, rock, and country tabs all in one place. Come visit us.