Guitar Tabs
song title    band name

Join Us Today!

Don't strum alone...
be a part of the largest online Christian music community. Browse thousands of guitar tabs and chat w/ musicians like yourself.


It's Free!

This tab has been rated a 4.33 out of 5 for accuracy. (3 votes)Sorry, but you must be logged in to rate this tab.
Click here to log-in, or you can click here to register.
(Registration is free)

All songs owned by corresponding publishing company. If you make copies of any song on this website, be sure to report your usage to CCLI.
Submitted by: joellaw44

Song: Follow You Down
Artist: Blindside
Album: About a Burning Fire

Drop Db Tuning (Db,Ab,Db,Gb,Bb,Eb)
Lots of time changes and stuff make the timing a little tough, so if you 
have powertab go to the forums and get the tabs in that section to make
learning it easier.

Intro
|-------------------|-----------------------------|--------------------|
|-------------------|-----------------------------|--------------------|
|-----------7-(7)-7-|-10-10-10-10-9-9-9-9-6-6-6-6-|-----------7-(7)-7--|
|-0-3-0-5-0-x-(x)-x-|-----------------------------|-0-3-0-5-0-x-(x)-x--|
|-0-3-0-5-0-5-(5)-5-|--8--8--8--8-7-7-7-7-4-4-4-4-|-0-3-0-5-0-5-(5)-5--|
|-0-3-0-5-0---------|-----------------------------|-0-3-0-5-0----------|


|---------------------|---------------------|-------------------|
|---------------------|---------------------|-------------------|
|-10-10-10-10-9-9-9-9-|-6-6-6-6-6-6-6-6-6-6-|-6-6-6-6-6-6-6-6-7-|
|---------------------|-x-x-x-x-x-x-x-x-x-x-|-x-x-x-x-x-x-x-x-x-|
|--8--8--8--8-7-7-7-7-|-4-4-4-4-4-4-4-4-4-4-|-4-4-4-4-4-4-4-4-5-|
|---------------------|---------------------|-------------------|


 Verse
  
  PM-------------------------------------------------
|-------------------------|-------------------------|
|-------------------------|-------------------------|
|-------------------------|-------------------------|
|-------------------------|-------------------------|
|---5-5---5-5---5-5---5-5-|---5-5---5-5---5-5---5-5-|
|-0-----0-----0-----0-----|-0-----0-----0-----0-----|


 Pre-Chorus
|------------------|---------------|---------------------|-----------------|
|------------------|---------------|---------------------|-----------------|
|------------------|---------------|---------------------|-----------------|
|--5-5-5--10-10-10-|--5-5-5--8-8-5-|-5-5-5-5-5-5-5-5-5-8-|-1-1-1-1-1-1-1-1-|
|--5-5-5---8--8--8-|--3-3-3--8-8-5-|-5-5-5-5-5-5-5-5-5-8-|-1-1-1-1-1-1-1-1-|
|--5-5-5---8--8--8-|--3-3-3--8-8-5-|-5-5-5-5-5-5-5-5-5-8-|-1-1-1-1-1-1-1-1-|


 Chorus
|-----------------------|----------------|
|-----------------------|----------------|
|-----------------------|----------------|
|--12-12-12-12-12-12-12-|--3-3-3-3-3-3-3-|
|--10-10-10-10-10-10-10-|--1-1-1-1-1-1-1-|
|--10-10-10-10-10-10-10-|--1-1-1-1-1-1-1-|


 Breakdown
                                       
|------------------|-------------------|---------------------------------|
|------------------|-------------------|---------------------------------|
|------------------|-------------------|---------------------------------|
|-0-8-10-7-0-9-0-8-|-0-10-12-7-0---0---|-0-------0-------0-------0-------|
|-0--------0---0---|-0---------0-9-0-8-|-0-11-11-0-11-11-0-11-11-0-11-11-|
|-0--------0---0---|-0---------0---0---|-0-------0-------0-------0-------|

|---------------------|---------------------|
|---------------------|---------------------|
|---------------------|---------------------|
|-0----0----0----0----|-0----0----0----0----|
|-0-11-0-11-0-11-0-11-|-0-11-0-11-0-11-0-11-|
|-0----0----0----0----|-0----0----0----0----|


Should be pretty much right.  If you have any questions, comments, or other
misc. stuff, email me at joellaw44@hotmail.com.  Make music, have fun.


* Generated using Power Tab Editor by Brad Larsen - 
http://powertab.guitarnetwork.org *

Comments about this tab

akaukal - 2006-03-09

beautiful tab man. good on the intro i never seemed to be able to get that right!


Add a comment/correction

Complimentary Christian Ringtones
Dadamobile and CGR have teamed up to bring your favorite Christian artists right to your phone. Sign up today and get 10 complementary ringtones!
Tab Country
Did you know CGR has a sister site w/ country guitar tabs? Well we do! Its called Tab Country. It has a great archive with a lot of country tabs.
Rockin Tabs
Are you looking for a site that has rock guitar tabs? Then Rockintabs.com is the place for you. It is a budding site with many rock guitar tabs. Submit your tab today.
Tab Gallery
Tab Gallery has a compilation of christian, rock, and country tabs all in one place. Come visit us.