Guitar Tabs
song title    band name

Join Us Today!

Don't strum alone...
be a part of the largest online Christian music community. Browse thousands of guitar tabs and chat w/ musicians like yourself.


It's Free!

This tab has not yet been rated for accuracy.Sorry, but you must be logged in to rate this tab.
Click here to log-in, or you can click here to register.
(Registration is free)

All songs owned by corresponding publishing company. If you make copies of any song on this website, be sure to report your usage to CCLI.
Submitted by: joellaw44

Artist: Blindside
Song: About a Burning Fire
Album: "

I changed the tuning from the other tab.  I think it should be standard, tune
down 1/2 step. (Eb,Ab,Db,Gb,Bb,Eb) 
 
Intro/Chorus
|----------|-----------|----------|-----------|
|----------|-----------|----------|-----------|
|----------|-----------|----------|-----------|
|-2--------|-5----4----|-2--------|-5----4----|
|-2--------|-3----2----|-2--------|-3----2----|
|-0--------|-3----2----|-0--------|-3----2----|



|------------|-----------|------------|-----------|
|------------|-----------|------------|-----------|
|------------|-----------|------------|-----------|
|-2----x-x---|-5----4----|-2----x-x---|-5----4----|
|-2----x-x---|-3----2----|-2----x-x---|-3----2----|
|-0----x-x---|-3----2----|-0----x-x---|-3----2----|


 Verse
|-------------|----------------|----------------|----------------|
|-------------|----------------|----------------|----------------|
|-------------|----------------|----------------|----------------|
|-8---6-9--8--|-(8)-8-8---6-9--|-8--(8)-8-8---6-|-9--8--(8)-8-8--|
|-8---6-9--8--|-(8)-8-8---6-9--|-8--(8)-8-8---6-|-9--8--(8)-8-8--|
|-6---4-7--6--|-(6)-6-6---4-7--|-6--(6)-6-6---4-|-7--6--(6)-6-6--|


|-------------------|-------------|--------------|-------------|
|-------------------|-------------|--------------|-------------|
|-------------------|-------------|--------------|-------------|
|-(8)-6-9--8--(8)-8-|-2--5--8---6-|-10--8--6--4--|-8---6-9--8--|
|-(8)-6-9--8--(8)-8-|-2--5--8---6-|--8--6--4--2--|-8---6-9--8--|
|-(6)-4-7--6--(6)-6-|-0--3--6---4-|--8--6--4--2--|-6---4-7--6--|


|----------------|----------------|-----------------|---------------||
|----------------|----------------|-----------------|--------------o||
|----------------|----------------|-----------------|---------------||
|-(8)-8-8---6-9--|-8--(8)-8-8---6-|-9--8--(8)-8-8---|-6-9--8---8----||
|-(8)-8-8---6-9--|-8--(8)-8-8---6-|-9--8--(8)-8-8---|-6-9--8---8---o||
|-(6)-6-6---4-7--|-6--(6)-6-6---4-|-7--6--(6)-6-6---|-4-7--6---6----||


 Out Chorus
    
|----------|----------|----------|----------|
|----------|----------|----------|----------|
|-5--------|----------|-5--------|----------|
|-5--------|-2--------|-5--------|-2--------|
|-3--------|-2--------|-3--------|-2--------|
|----------|-0--------|----------|-0--------|

  
|-------------|-----------------|-------------|--------------------|
|-------------|-----------------|-------------|--------------------|
|-------------|-7-7-7-7-7-7-7-7-|-------------|------4-2-(2)-1-1-2-|
|-2--2--2--2--|-5-5-5-5-5-5-5-5-|-2--2--2--2--|-(2)----------------|
|-2--2--2--2--|-3-3-3-3-3-3-3-3-|-2--2--2--2--|-(2)----------------|
|-0--0--0--0--|-----------------|-0--0--0--0--|-(0)-------0--------|

That should give you a pretty good idea.  The verse is a little hard, but
I'm pretty sure that those are the right chords.  Any comments, questions, etc.
can go to joellaw44@hotmail.com.

Comments about this tab

Dani_Boy - 2006-04-12

You've got way too many A5 chords in the verse. I think they use palm muting in the chorus instead of scratching. I think the tuning should be Drop D. Your tuning is not bad, but a lot of Blindside songs are in drop D and it's much easier to play it in Drop D.

I don't mean to complain, just give you a few ideas of improvement.


Add a comment/correction

Complimentary Christian Ringtones
Dadamobile and CGR have teamed up to bring your favorite Christian artists right to your phone. Sign up today and get 10 complementary ringtones!
Tab Country
Did you know CGR has a sister site w/ country guitar tabs? Well we do! Its called Tab Country. It has a great archive with a lot of country tabs.
Rockin Tabs
Are you looking for a site that has rock guitar tabs? Then Rockintabs.com is the place for you. It is a budding site with many rock guitar tabs. Submit your tab today.
Tab Gallery
Tab Gallery has a compilation of christian, rock, and country tabs all in one place. Come visit us.