Guitar Tabs
song title    band name

Join Us Today!

Don't strum alone...
be a part of the largest online Christian music community. Browse thousands of guitar tabs and chat w/ musicians like yourself.


It's Free!

This tab has been rated a 3.33 out of 5 for accuracy. (3 votes)Sorry, but you must be logged in to rate this tab.
Click here to log-in, or you can click here to register.
(Registration is free)

All songs owned by corresponding publishing company. If you make copies of any song on this website, be sure to report your usage to CCLI.
Submitted by: I am here

F---------------3h5s7-7h9s10-10p8--7h10s12-12p10
C-5h8-10-10p8-8---------------------------------
G-----------------------------------------------
C-----------------------------------------------

F-10s5-7--2-3h4---------------------------------
C---------------5-555-555-----------------------
G-----------------555-555-------------5------3--
C-----------------555-555--17s5--55-33---111---3
 
C--------------------------------------------555-555
G-------5-----3---------5-----3---------5----555-555
C-55-33---111---3-55-33---111---3-55-33---1--555-555  

C--------------------------------------------555-555-----
G-------5-----3---------5-----3---------5----555-555-----
C-55-33---111---3-55-33---111---3-55-33---1--555-555-17s5  

Comments about this tab

I am here - 2005-06-04

Just so you guys know this is the solo
In case you couldn't tell


Jimbo12 - 2005-06-05

this is the solo, straight out of the book....

Guitar 4 (slight distortion, with delay)

Delay set for quarter-note regeneration with 2 repeats

F|----------------|--------------3-5-|-(5)b7r5-3----3----|------------|
C|-(3)~/~5--------|------(3)~/~5-----|-----------5-------|------------|
^ hold ^ hold for next bar

F|------------|-----5p3--5~/~7---5h7-|-7~/~10------7h10p7-----|------------|
C|------------|----------------------|---------------------10-|------------|
^ hold for next bar

A|------------|---------6~/~8------|----8p6----6------------|------------|
F|------------|--(5)h7-------------|---------7----(7)~\~5---|------------|

F|-(5)~/~7~\~5~\~3------|-2----------|---------2h3-|------------|--------|
C|----------------------|------------|-------------|-3----------|-5------|


I am here - 2005-06-08

Thanks for the correction this is one of my first
tabs and i think mine is dead on except theirs is
just placed differently on the fretboard, i think.
I have'nt really looked over it too much yet


1ban3zGSR - 2005-06-27

how do u play this part of the solo? (5)b7r5


skid - 2005-10-30

to play that part you bend on the 5th string till it sounds like the 7th


TFK...SO RAD... - 2005-12-20

Thank both Jimbo12 and I am Here for that solo. I've been looking 4 that. Keep on Rockin

God Bless, TFK...SO RAD...


TG-da-JF - 2006-01-01

but what does that "^ hold" stuff mean? otherwise... thanks mate


hmdet - 2006-01-03

Is this the transition after the solo where Rob is screaming?


1ban3zGSR - 2006-03-12

Jimbo12, can u send me the chords that's in the book for this song? my email is gceleridad@sbcglobal.net


crazyheadbanger - 2006-04-12

great tab dude! i figured out another way 2 do this solo but i think that urs is better. thanks man.

ROCK ON!!!
guitar player,
victor


Dani_Boy - 2006-04-22

I haven't tried it out yet, but I think I can see some mistakes. Your tab seems to be really good, but it's more of a 4 tab than a 5 tab. I don't want to vote yet though, since I haven't tried it out. Only in my head...


Add a comment/correction

Complimentary Christian Ringtones
Dadamobile and CGR have teamed up to bring your favorite Christian artists right to your phone. Sign up today and get 10 complementary ringtones!
Tab Country
Did you know CGR has a sister site w/ country guitar tabs? Well we do! Its called Tab Country. It has a great archive with a lot of country tabs.
Rockin Tabs
Are you looking for a site that has rock guitar tabs? Then Rockintabs.com is the place for you. It is a budding site with many rock guitar tabs. Submit your tab today.
Tab Gallery
Tab Gallery has a compilation of christian, rock, and country tabs all in one place. Come visit us.