Guitar Tabs
song title    band name

Join Us Today!

Don't strum alone...
be a part of the largest online Christian music community. Browse thousands of guitar tabs and chat w/ musicians like yourself.


It's Free!

This tab has not yet been rated for accuracy.Sorry, but you must be logged in to rate this tab.
Click here to log-in, or you can click here to register.
(Registration is free)

All songs owned by corresponding publishing company. If you make copies of any song on this website, be sure to report your usage to CCLI.
Submitted by: teqnotyn617

Title - High Five
Artist - Calibretto 13
Cd - Enter The Danger Brigade(tooth and Nail, 2000)
tabbed by teqnotyn617 

okay this is my first tab
i just took the chords of the other High Five and put it into tab

(you can figure the strum patern if you listen to cd)
   verse 1
e|-3---2---0---2---0---3---2---3---2---0---2---0---2---3
B|-0---3---0---3---1---0---3---0---3---0---3---1---3---0
G|-0---2---0---4---0---0---2---0---2---0---4---0---2---0
D|-0---0---2---0---2---0---0---0---0---2---0---2---0---0
A|-2-------2-------3---2-------2-------2-------3-------2
E|-3-------0-------0---3-------3-------0-------0-------3

e|-2---3---2---0---2---0---3---2---3---2---0---2---0---2
B|-3---0---3---0---3---1---0---3---0---3---0---3---1---3
G|-2---0---2---0---4---0---0---2---0---2---0---4---0---2
D|-0---0---0---2---0---2---0---0---0---0---2---0---2---0
A|-----2-------2-------3---2-------2-------2-------3----
E|-----3-------0-------0---3-------3-------0-------0----

e|-3---2---|
B|-0---3---|
G|-0---2---|
D|-0---0---|
A|-2-------|
E|-3-------|

cHORUS:

e|-3---2---2---0---3---2---3---2---3---2---2---0---3---2
B|-0---3---3---1---0---3---0---3---0---3---3---1---0---3
G|-0---2---4---0---0---2---0---2---0---2---4---0---0---2
D|-0---0---0---2---0---0---0---0---0---0---0---2---0---0
A|-2-----------3---2-------2-------2-----------3---2----
E|-3-----------0---3-------3-------3-----------0---3----

e|-3-
B|-0-
G|-0-
D|-0-
A|-2-
E|-3-

verse 2:

e|-3---2---0---2---0---3---2---3---2---0---2---0---2---3
B|-0---3---0---3---1---0---3---0---3---0---3---1---3---0
G|-0---2---0---4---0---0---2---0---2---0---4---0---2---0
D|-0---0---2---0---2---0---0---0---0---2---0---2---0---0
A|-2-------2-------3---2-------2-------2-------3-------2
E|-3-------0-------0---3-------3-------0-------0-------3

e|-2-
B|-3-
G|-2-
D|-0-
A|---
E|---

Chorus

Bridge:
-
e|-0---3---2---3---0---3---2-
B|-1---0---3---0---1---0---3-
G|-0---0---2---0---0---0---2-
D|-2---0---0---0---2---0---0-
A|-3---2-------2---3---2-----
E|-0---3-------3---0---3-----

Bridge
Chorus (4x)

Outro:

e|-3---2---3---3---2---3---2---2---0---3---2---3----2-
B|-0---3---0---0---3---0---3---3---1---0---3---0----3-
G|-0---2---0---0---2---0---2---4---0---0---2---0----2-
D|-0---0---0---0---0---0---0---0---2---0---0---0----0-
A|-2-------2---2-------2-----------3---2-------2------
E|-3-------3---3-------3-----------0---3-------3------

Comments about this tab

No comments/corrections found. Add your own

Complimentary Christian Ringtones
Dadamobile and CGR have teamed up to bring your favorite Christian artists right to your phone. Sign up today and get 10 complementary ringtones!
Tab Country
Did you know CGR has a sister site w/ country guitar tabs? Well we do! Its called Tab Country. It has a great archive with a lot of country tabs.
Rockin Tabs
Are you looking for a site that has rock guitar tabs? Then Rockintabs.com is the place for you. It is a budding site with many rock guitar tabs. Submit your tab today.
Tab Gallery
Tab Gallery has a compilation of christian, rock, and country tabs all in one place. Come visit us.