Guitar Tabs
song title    band name

Join Us Today!

Don't strum alone...
be a part of the largest online Christian music community. Browse thousands of guitar tabs and chat w/ musicians like yourself.


It's Free!

Grammatrain - Need

This tab has not yet been rated for accuracy.Sorry, but you must be logged in to rate this tab.
Click here to log-in, or you can click here to register.
(Registration is free)

All songs owned by corresponding publishing company. If you make copies of any song on this website, be sure to report your usage to CCLI.
title: Need
by: Grammatrain
CD: Lonely House
from: White_Stone@hotmail.com (ScOtT)
copyright: Forefront Communications

Intro: E-C-D-E-C-D

E			    C D E            C D
I wear a face that seems to be  confidentiality.
E			  C D E                C 
The only eyes that see in me  know my desperality.
     D	   E	      D	       C
And I'm a man who's found his way
     D     E     D      C       D        E       D      C
By having not a lot to say.  I want to tell you that I need you.

A|----------------|
E|-0-12-10-7-5-0--|  * (note 1)

 
E			      C D E                 C D  
I know they really think they see an image of maturity. 
E		          C D E         	     C
But if I was what I could be, wouldn't I be on my knees.
     D     E          D        C
And I'm a man who's found his way
     D     E	 D      C       D       E        D      C
By having not a lot to say.  I want to tell you that I need you.

     D      E    D	   C
And when I fall into your hand
   D     E        D     C        D     E       D      C
I see myself for what I am.  It only shows me that I need you.

A|-----------|
E|-10-8-5-3--|  * (note 2)

1st solo

     D     E          D        C
And I'm a man who's found his way
     D     E	 D      C       D       E        D      C
By having not a lot to say.  I want to tell you that I need you.

     D      E    D	   C
And when I fall into your hand
   D     E        D     C        D     E       D      C
I see myself for what I am.  It only shows me that I need you.

A|-----------|
E|-10-8-5-3--|  * (note 3)			

2nd solo					b=bend
						p=pull
						\=slide down
1st solo
E|------------------------------------------------------------------------7-|
B|----------------------------------------------------------7-----------8---|
G|--------------------------------------------------------7---9p7---7-9-----|
D|-----------------------------------------7-7-7-7--9-9-9---------9---------|
A|------------------7-7-7--9-9-9--10-10-10----------------------------------|
E|-8-8--10-10-10-10---------------------------------------------------------|

|------7-7-----------8---8---8-10p8----8-8---------------------------------|
|-10-8-----10p8-10p8-8-8-8-8-8------10-8-8-8\------------------------------|
|--------------------------------------------------------------------------|
|--------------------------------------------------------------------------|
|--------------------------------------------------------------------------|
|--------------------------------------------------------------------------|

2nd solo
|-----------------------------------------------------------------------7--|
|---------------------------------------------------------7-----------8----|
|-------------------------------------------------------7---9p7---7-9------|
|-----------------------------------------7-7-7--9-9-9----------9----------|
|------------------7-7-7--9-9-9--10-10-10----------------------------------|
|-8-8--10-10-10-10---------------------------------------------------------|

|------7-10-7-10------8---8---8-10p8----8-8----|    |----------------------|
|-10-8-----------10-8-8-8-8-8-8------10-8-8-8--|    |----------------------|
|----------------------------------------------|    |----------------------|
|----------------------------------------------| C5 |-10-10-10-10----------|
|----------------------------------------------|    |----------------------|
|----------------------------------------------|    |----------------------|
                 				
    |-----------|    |-----------------------------------------------------|
    |-----------|    |-----------------------------------------------------|
    |-----------|    |-----------------------------------------------------|
 D5 |-12-12-12\-| E5 |-14-14-14-14-16-14--------------------------------14-|
    |-----------|    |-------------------16\-15-15-15-15-15-15-15-15-12----|
    |-----------|    |-----------------------------------------------------|

|-------------|    |--------------------------------|    |-----------------|
|-------------|    |--------------------------------|    |-----------------|
|-------------|    |--------------------------------|    |-9-------9----9--|
|-------14-14-| C5 |-------7-7-7-7b-7b8b7-5-7p5-----| C5 |---10-12---12----|
|-12-14-------|    |---5-7----------------------5-7-|    |-----------------|
|-------------|    |-7------------------------------|    |-----------------|

|-------------------8-8-8-8-8-8-8-8-8-8-8-8-8-8-8\-------------------------|
|-------------10-----------------------------------------------------------|
|-9-9-12-9-12----12--------------------------------------------------------|
|--------------------------------------------------------------------------|
|----------------------------------------------------------------------7-7-|
|--------------------------------------------------8-8-8-8-10-10-10-10-----|

|-------------------------------------------------------|    |------------|
|-------------------------------------------------------|    |------------|
|-------------------------------------------------------|    |---------9--|
|-------------------------7-7-7-7-9-9-9-9-9-9-9-9-9-9-9-| C5 |--9-12-9----|
|-7-7-9-9-9-9-10-10-10-10-------------------------------|    |-7----------|
|-------------------------------------------------------|    |------------|

|----------------|    |-----------------------------------------------|
|----------------|    |15b17-17-15b17-17-17-15b17-17-17-15b17-17-17-17|
|------12p9------|    |-----------------------------------------------|  *
|-12-9-12p9-----9| C5 |-----------------------------------------------|(note
|----------12-12-|    |-----------------------------------------------|   4)
|----------------|    |-----------------------------------------------|

|-------------------------------------------------------------------------|
|--15p12-15p12----12------------------------------------------------------|
|--------------14----14b-12-14p12-------14b-12-14p12----------------12----|
|---------------------------------12-14--------------12-14-12-12-14----14-|
|-------------------------------------------------------------------------|
|-------------------------------------------------------------------------|

|-------------------------------------------------------|
|-------------------------------------12----------------|
|----------12---------12---------12------14p12-------12-|
|---12--12---14-14-14---14-14-14---14----------14-14----|
|-14--14------------------------------------------------|
|-------------------------------------------------------|


|---------12----------12----------12----------12\-|
|-13---13----13-13-13----13-13-13----13-13-13-----|
|----12-------------------------------------------|
|-------------------------------------------------| C5
|-------------------------------------------------|
|-------------------------------------------------|

The rest of the song alternates between chords C and E.  


* (note 1,2,3) I think these are played on the bass, but they sound pretty
cool on the guitar too.

* (note 4)  
I wasn't sure how to write this part on the tab, so I'm going to explain it.
Bend up the 15th string to 17, and then play the rest of the 17's on this 
bent note, continuing to bend when appropriate.

I am a beginning guitarist and this is my first attempt at tabbing a song.
I think I did a fairly good job, but as always, if you disagree or find any
mistakes, please mail me your corrections.  Have fun!!

Comments about this tab

No comments/corrections found. Add your own

Complimentary Christian Ringtones
Dadamobile and CGR have teamed up to bring your favorite Christian artists right to your phone. Sign up today and get 10 complementary ringtones!
Tab Country
Did you know CGR has a sister site w/ country guitar tabs? Well we do! Its called Tab Country. It has a great archive with a lot of country tabs.
Rockin Tabs
Are you looking for a site that has rock guitar tabs? Then Rockintabs.com is the place for you. It is a budding site with many rock guitar tabs. Submit your tab today.
Tab Gallery
Tab Gallery has a compilation of christian, rock, and country tabs all in one place. Come visit us.