Guitar Tabs
song title    band name

Join Us Today!

Don't strum alone...
be a part of the largest online Christian music community. Browse thousands of guitar tabs and chat w/ musicians like yourself.


It's Free!

This tab has been rated a 5.00 out of 5 for accuracy. (2 votes)Sorry, but you must be logged in to rate this tab.
Click here to log-in, or you can click here to register.
(Registration is free)

All songs owned by corresponding publishing company. If you make copies of any song on this website, be sure to report your usage to CCLI.
Submitted by: funkycow

Artist: Zao
Song: Desire the End
Album: Liberate Te Ex Inferis


p= Pull off
h= Hammer on
^= Bend

Intro and inbetween verses
D|----------------------------------------|
A|-----------------------7----------------|
F|-----------0-----------5----------------|
C|---0--2h3-----3--2--3--3--3--2--2--0----|
G|---0-------------------3--3--2--2--0----|
C|---0-------------------3--3--2--2--0----|

Right before he starts singing without the other guitar 1x
D|----------------------------------------|
A|-----------------------7----------------|
F|-----------0-----------5--------5-------|
C|---0--2h3-----3--2--3--3--3--2--5--0----|
G|---0-------------------3--3--2--3--0----|
C|---0-------------------3--3--2--x--0----|

First and Second chorus
D|-----------------------------------------|
A|-----------------------------------------|
F|------2--3--6--3--2--3--2--2-----5-------|
C|---0--2--3--6--3--2--3--2--2--2--5--0----|
G|---0--------------------3--3--2--3--0----|
C|---0--------------------3--3--2--x--0----|


Fill 1 (Played at various parts throughout song)
D|----------------------------------10^------------|
A|-------------------------------------------------|
F|--7-8-7-6-7-8-7-6-7-8-7-6-7-8--------------------|
C|-------------------------------------------------|
G|-------------------------------------------------|
C|-------------------------------------------------|
Palm mute the above exept the last bend.

This is played clean.
First Time:
D|--5--5--5--5--------------------------------------5--5--------5--5--|
A|--3--3--3--3--------------------------------------3--3--------3--3--|
F|--2--2--2--2--3--3--3--3--3--5--5--5--5--5--4--4--2--2--5--5--2--2--|
C|--0--0--0--0--5--5--5--5--5--3--3--3--3--3--2--2--0--0--5--5--0--0--|
G|--0--0--0--0--5--5--5--5--5--3--3--3--3--3--2--2--0--0--3--3--0--0--|
C|--0--0--0--0--5--5--5--5--5--3--3--3--3--3--2--2--0--0--x--x--0--0--|

   After that:
D|--5--5--5--5--------------------------------------5--5--5--5--5--5--|
A|--3--3--3--3--------------------------------------3--3--3--3--3--3--|
F|--2--2--2--2--3--3--3--3--3--5--5--5--5--5--4--4--2--2--2--2--2--2--|
C|--0--0--0--0--5--5--5--5--5--3--3--3--3--3--2--2--0--0--0--0--0--0--|
G|--0--0--0--0--5--5--5--5--5--3--3--3--3--3--2--2--0--0--0--0--0--0--|
C|--0--0--0--0--5--5--5--5--5--3--3--3--3--3--2--2--0--0--0--0--0--0--|

Distortion.....
D|-----------------------------------------------------|
A|-----------------------------------------------------|
F|-----------------------------------------------------|
C|--10--8--8--7--5--7--8--7---10--8--8--7--5--7--8--7--|
G|-----------------------------------------------------|
C|-----------------------------------------------------|

This is played at the same time as the part above by guitar 2:.
D|----------------------------------10^------------|
A|-------------------------------------------------|
F|--7-8-7-6-7-8-7-6-7-8-7-6-7-8--------------------|
C|-------------------------------------------------|
G|-------------------------------------------------|
C|-------------------------------------------------|
Palm mute the above exept the last bend.
Third chorus.
D|------------------------11^--------------------|
A|-----------------------------------------------|
F|-----------------------------------------------|
C|-0-1-0-0-1-0-0-0-0-0---------------------------|
G|-0-1-0-0-1-0-0-0-0-0---------------------------|
C|-0-1-0-0-1-0-0-0-0-0---------------------------|
Palm mute the above exept the last bend.
Last chorus.
D|--------------------------11h12p11-------------|
A|-----------------------------------------------|
F|-----------------------------------------------|
C|-0-1-0-0-1-0-0-0-0-0---------------------------|
G|-0-1-0-0-1-0-0-0-0-0---------------------------|
C|-0-1-0-0-1-0-0-0-0-0---------------------------|
Palm mute the above exept the last bend.

Please rate.

Comments about this tab

No comments/corrections found. Add your own

Complimentary Christian Ringtones
Dadamobile and CGR have teamed up to bring your favorite Christian artists right to your phone. Sign up today and get 10 complementary ringtones!
Tab Country
Did you know CGR has a sister site w/ country guitar tabs? Well we do! Its called Tab Country. It has a great archive with a lot of country tabs.
Rockin Tabs
Are you looking for a site that has rock guitar tabs? Then Rockintabs.com is the place for you. It is a budding site with many rock guitar tabs. Submit your tab today.
Tab Gallery
Tab Gallery has a compilation of christian, rock, and country tabs all in one place. Come visit us.