Guitar Tabs
song title    band name

Join Us Today!

Don't strum alone...
be a part of the largest online Christian music community. Browse thousands of guitar tabs and chat w/ musicians like yourself.


It's Free!

This tab has been rated a 5.00 out of 5 for accuracy. (1 vote)Sorry, but you must be logged in to rate this tab.
Click here to log-in, or you can click here to register.
(Registration is free)

All songs owned by corresponding publishing company. If you make copies of any song on this website, be sure to report your usage to CCLI.
Submitted by: Awanabecop

Artist: 12 Stones
Song: Bitter
CD: Potter's Field
Copyright: 2004  Wind-UP Records

       I'm tabbing out the intro first 
then soon i'll tab out the whole song. so here it is!!!

Drop C!!!

Intro1 (Clean)
D-------------------------------------------
A-------------------------------------------
F-------------------------------------------
C---4---2---6---4---4---2---6---7-----------
G---2---0---4---0---2---0---4---0-----------
C---2---0---4---0---2---0---4---0-----------

Intro2 Distortion
D--------------------------------------------------------
A--------------------------------------------------------
F--------------------------------------------------------
C---2---000---4---000-------2---000---4---000---4b-------
G---2---000---4---000--5b---2---000---4---000------------
C---2---000---4---000-------2---000---4---000------------


D--------------------------------------------------------
A--------------------------------------------------------
F--------------------------------------------------------
C---2---000---4---000-------2---000---4---000---4b-------
G---2---000---4---000--5b---2---000---4---000------------
C---2---000---4---000-------2---000---4---000------------
  
Well, that's it for now!! and this tab is 100% correct!!!
if you don't think so,(or if you don't trust me) 
give me your corrections otherwise or comments!!

in Christ,

Josiah



Comments about this tab

eclipse_047 - 2005-10-28

lol i was messing around on my guitar and accedently figured out how to play bitter and this is the exact same way good job!


Add a comment/correction

Complimentary Christian Ringtones
Dadamobile and CGR have teamed up to bring your favorite Christian artists right to your phone. Sign up today and get 10 complementary ringtones!
Tab Country
Did you know CGR has a sister site w/ country guitar tabs? Well we do! Its called Tab Country. It has a great archive with a lot of country tabs.
Rockin Tabs
Are you looking for a site that has rock guitar tabs? Then Rockintabs.com is the place for you. It is a budding site with many rock guitar tabs. Submit your tab today.
Tab Gallery
Tab Gallery has a compilation of christian, rock, and country tabs all in one place. Come visit us.