Guitar Tabs
song title    band name

Join Us Today!

Don't strum alone...
be a part of the largest online Christian music community. Browse thousands of guitar tabs and chat w/ musicians like yourself.


It's Free!

This tab has been rated a 4.60 out of 5 for accuracy. (10 votes)Sorry, but you must be logged in to rate this tab.
Click here to log-in, or you can click here to register.
(Registration is free)

All songs owned by corresponding publishing company. If you make copies of any song on this website, be sure to report your usage to CCLI.
Submitted by: guitarsticks22

Standard Tuning: EADGBE

These guys rock! Enjoy

Intro: Guitar 1

E[-------13------11------10------11-----
B[----11---11--11--11--11--11--11--11---
G[-10--------10------10------10------10-
D[-------------------------------------- and repeat once
A[--------------------------------------
E[--------------------------------------

Guitar 2:

E[------------------------------
B[--------------palm muted----
G[-3------------3-3-3-3-3-3-3-3-
D[-3-let-ring---3-3-3-3-3-3-3-3-
A[-1------------1-1-1-1-1-1-1-1-
E[------------------------------

Guitar 1

E[-----13------11------10--11-10----------13------11------10--11-10-11-13-
B[---11--11--11--11--11--11-----13-11---11--11--11--11--11--11------------
G[-10------10------10-----------------10------10------10------------------
D[------------------------------------------------------------------------
A[------------------------------------------------------------------------
E[------------------------------------------------------------------------
    repeat this^ lick again and then at the end of the last time play

E[-----------------------
B[-11-----11-13--15^-----
G[-----------------------
D[-----------------------
A[-----------------------
E[-----------------------

Guitar 2

E[-------------------------------------------------------------------------
B[-------------------------------------------------------------------------
G[-3-3-5-5---------3-3-5-5-----^-^-3-3-5-5---------3-3-5-5---------3-3-5-5-
D[-3-3-5-5-5-5-3-3-3-3-5-5-5-5-3-3-3-3-5-5-5-5-3-3-3-3-5-5-5-5-3-3-3-3-5-5-
A[-1-1-3-3-5-5-3-3-1-1-3-3-5-5-3-3-1-1-3-3-5-5-3-3-1-1-3-3-5-5-3-3-1-1-3-3-
E[---------3-3-1-1---------3-3-1-1---------3-3-1-1---------3-3-1-1---------

---------------------
---------------------
-------3--5--3-------
-5-----3--5--3-------
-5-----1--3--1-------
-3-------------------

Verse:
the verse is just basically the bass doing its thing with the drums. Not 
any guitar.

Chorus:

E[---------------------------------------------------------------
B[---------------------------------------------------------------
G[-3-3-3-3-3-3-3-3-7-7-7-8-8-9-9-3--33-33-3---------5-2--------3-
D[-3-3-3-3-3-3-3-3-8-8-8-8-8-9-9-3--33-33-3-5-5-5-5-5-3--------3-
A[-1-1-1-1-1-1-1-1-5-5-5-6-6-8-8-1--11-11-1-5-5-5-5-3-0--------1-
E[------------------------------------------3-3-3-3--------------

Verse:
agian it is just bass and drums

Chorus

Bridge:
I am just going to write out the notes, he plays each not several times though

E[------------stop--------------------------------------------6--5--6--8--
B[-4--3--4--3--4----4--3--4--3--4--3--3--4--6--4--3--4--3--4--6--4--6--6--
G[------------------------------------------------------------------------
D[------------------------------------------------------------------------
A[------------------------------------------------------------------------
E[------------------------------------------------------------------------

------------stop--------------------------
-4--3--4--3--4-------4--3--4--3--4--3-----
------------------------------------------
------------------------------------------
------------------------------------------
------------------------------------------

Part 2:

E[-------------------------------- 
B[----drums---drums----drums----drums
G[-3-3-----3-3-----7-7------7-7---
D[-3-3-----3-3-----8-8------8-8---
A[-1-1-----1-1-----5-5------5-5---
E[--------------------------------

Verse 3: again, he plays each note several times, but i'm just putting 
them once. The first half is all palm muted.

E[----------------------------------------------------------
B[-------------4--3--------------------4-4-3-3-4-6-4-3------
G[-3--5--3-----------3--5--3--5--3--------------------------
D[----------3-----------------------3-----------------------
A[----------------------------------------------------------
E[----------------------------------------------------------

repeat that agin but not palm muted, then on the "not my own" part,
play:

E[-------------
B[-------------
G[-8-----------
D[-8-----------
A[-6-----------
E[-------------

Then the chorus again
and end on 

E[-------------
B[-------------
D[-2-----------
G[-3-----------
A[-0-----------
E[-------------

I hope this helps you out some. Stellar kart is pretty awsome i think.
Add or correct anything if you find any mistakes. 

-brandon-

Comments about this tab

guitarfreak846 - 2005-06-02

this song is in drop d
i saw at the concert
very close tho


Down_In_Flames - 2005-06-05

great ecept hte

-2- -2-
-3- -2-
-0- 's should be -0-
other than that it's perfect


Down_In_Flames - 2005-06-05

sry the


bronxbomber - 2005-07-21

idk. the very first guitar 1 intro doesn't sound right...what about this.

e-13------13-------11-------10-------11-------10------------------
B------11-------11-------11-------11-------11-------11-13----11-11
A---10-------10-------10-------10-------10-------10-------10------


then repeat that twice or something close to that. maybe a note or two different for the end.


bronxbomber - 2005-07-21

oops. that last one got all screwed up. let me try again

e-13------13-------11-------10-
B------11-------11-------11----
A---10-------10-------10-------

e-------11-------10-------------------
B----11-------11-------11-13----11-11-
A-10-------10-------10-------10-------


sanktified rock - 2005-10-11

on the third verse the part actually goes

E------------------------------------------------------------------------------B-------------44-33--------------------434643-------------434643---------------G-33-55-33----------55-33--33-55-33----------53-33-55-33--------53-------------D----------33-----------------------33-----------------------------------------A------------------------------------------------------------------------------E------------------------------------------------------------------------------E------------------------------------------------------------------------------B------------4-3---------------------------------------------------------------G-33-55-33--------3-hold-------------------------------------------------------D----------33------------------------------------------------------------------A------------------------------------------------------------------------------E------------------------------------------------------------------------------


sanktified rock - 2005-10-11

it messed up


sanktified rock - 2005-10-11

it messed up


mmggppmgp - 2005-11-29

can someone tab outro for "livin on a prayer", that will take me years to figure out... well days


givinit2God - 2006-07-20

i tabed livin on a prayer and it's really not that hard if you have a nice distortion.


Godzgurl104 - 2006-09-21

can some one figure out student driver chords???
i cant play tabs and i really like this song....it'd be awesome to have it in chords so i can play it.


silver400 - 2008-01-25

The intro still sounds off...

Anyone have any ideas on how to correct it?


go4broke28 - 2008-10-17

good job on the song man. I'm trying to learn it now, so if I see anything else, i'll post. Quick thought on the bridge with the B string playing 3-4-3-4-3 (that whole part). When you get to the end, I tried to play a g string fretted 3rd, and it sounded nice. Give that a try. Other than that, no problems. I'm a new user, but I am good with my guitar. Rock on dude!


Emanuelducas - 2010-03-01

Thank you for this beautiful article e okul . I took güzel sözler great pleasure in reading yeni albüm dinle . I have been writing continuously to follow always son albüm dinle . Wishing to do canlı tv izle so much good shares. In the meantime, sometimes I'm having problems entering your site. If you are interested in this subject better e okul . Many thanks++


Add a comment/correction

Complimentary Christian Ringtones
Dadamobile and CGR have teamed up to bring your favorite Christian artists right to your phone. Sign up today and get 10 complementary ringtones!
Tab Country
Did you know CGR has a sister site w/ country guitar tabs? Well we do! Its called Tab Country. It has a great archive with a lot of country tabs.
Rockin Tabs
Are you looking for a site that has rock guitar tabs? Then Rockintabs.com is the place for you. It is a budding site with many rock guitar tabs. Submit your tab today.
Tab Gallery
Tab Gallery has a compilation of christian, rock, and country tabs all in one place. Come visit us.