Guitar Tabs
song title    band name

Join Us Today!

Don't strum alone...
be a part of the largest online Christian music community. Browse thousands of guitar tabs and chat w/ musicians like yourself.


It's Free!

Grammatrain - Jonah

This tab has not yet been rated for accuracy.Sorry, but you must be logged in to rate this tab.
Click here to log-in, or you can click here to register.
(Registration is free)

All songs owned by corresponding publishing company. If you make copies of any song on this website, be sure to report your usage to CCLI.
Artist:Grammatrain
Album:Flying-1997
Song:Jonah-Track 1

Here is the correct way to play "Jonah", the other tab is messed up

Standard Tuning
X-strum chord repeatedly 7-8 times
Verse
       A(X) C(X) E(X) G(X)
4|*----2----2----2----0--*|
5|*----0----3----2----2--*|
6|--------------------3---|

Chorus-1st Part-played two times (I think I'm drowing and the ocean is raging......)
     A   C/G  B/F#  F
3|---2---5----4---------|     You strum the chords a couple times each
4|*--2---5----4-----3--*|     not a specific number
5|*--0---3----2-----3--*|
6|-------3----2-----1---|

Chorus-2nd Part-(and I swallowed all my yesterdays....)
                                            _________ ______
    Asus2   Cma7    Bsus4   |1.Fma9(#11)| |2.F    D       Emi   G
1|--0-------0-------0----------0--------|-------------|--------------||
2|--0-------0-------0----------0--------|---------2---|--------------||
3|*-2-------5-------4----------0-------*|---------3---|---0-----0----||
4|*-2-------5-------4----------3-------*|----3----0---|---2-----0----||
5|--0-------3-------2----------3--------|----3----0---|---2-----2----||
6|----------3-------2----------1--------|----1--------|---0-----3----||

you kinda strum the lower part of the chord, then the higher part, which
is the same for each one(0,0 on 1st/2nd strings)------

Bridge-(I know that you'll dry all my tears......)
(4X)-play chord 4 times, etc.
      E(4X)   Esus4(2X)E(2X)   G(4X)   Gsus4(2X) G(2X)
1|----0-------0--------0----|--3-----------------3----|
2|----0-------0--------0----|--3-----------------3----|
3|*---1-------2--------1----|--4-------5---------4---*|
4|*---2-------2--------2----|--5-------5---------5---*|
5|----2-------2--------2----|--5-------5---------5----|
6|----0-------0--------0----|--3-------3---------3----|

End Part-played 2X-all notes on sixth string
     sl.               sl.            sl.
5|*-----------------|---------------|-----------------|------------------*|
6|*-3/5-5-0-0-3-3-0-|-3/5-0---0-3-0-|-3/5-5-0-0-3-3-0-|-3/5-5-0---0-3----*|

You play verse, chorus part 1, chorus part 2(full as shown),
verse, chorus part 1, chorus part 2(end on D chord), bridge, End Part, 
verse, chorus part 1, chorus part 2(full), End Part.


Josh White-jw001g@uhura.cc.rochester.edu
not tabbed by me though

Comments about this tab

No comments/corrections found. Add your own

Complimentary Christian Ringtones
Dadamobile and CGR have teamed up to bring your favorite Christian artists right to your phone. Sign up today and get 10 complementary ringtones!
Tab Country
Did you know CGR has a sister site w/ country guitar tabs? Well we do! Its called Tab Country. It has a great archive with a lot of country tabs.
Rockin Tabs
Are you looking for a site that has rock guitar tabs? Then Rockintabs.com is the place for you. It is a budding site with many rock guitar tabs. Submit your tab today.
Tab Gallery
Tab Gallery has a compilation of christian, rock, and country tabs all in one place. Come visit us.