Guitar Tabs
song title    band name

Join Us Today!

Don't strum alone...
be a part of the largest online Christian music community. Browse thousands of guitar tabs and chat w/ musicians like yourself.


It's Free!

This tab has been rated a 4.00 out of 5 for accuracy. (1 vote)Sorry, but you must be logged in to rate this tab.
Click here to log-in, or you can click here to register.
(Registration is free)

All songs owned by corresponding publishing company. If you make copies of any song on this website, be sure to report your usage to CCLI.
Submitted by: Peeps

Song: Remember Sammy Jankis
Artist: Staple
Album: Staple
Tabbed by Peeps

Tuning: Drop C (CGCFAD)

pm = palm mute
b = bend
p = pull off

intro
hold out an open C with some feedback, etc. then...

F---------10-9---                 F--10-9---------- 
C---5-3-0------0-  play 4x then   C-------0--5-3-0-   play 4x
G---5-3-0--8-7-0-                 G---8-7-0--5-3-0-
C---5-3-0------0-                 C-------0--5-3-0-

verse
A--------------------11-11-11--11-10-10-10-10p9-9-9-
F---------------------------------------------------
C---0-0-0--0-0-0-0----------------------------------  play with the pattern a 
G---0-0-0--0-0-0-0----------------------------------  little....
C---0-0-0--0-0-0-0----------------------------------
pm................

then heavier...
A--------------------11-11-11--11-10-10-10-10--9--9-  again, play with the
F---------------------0--0--0---0--0--0--0--0--0--0-  pattern. the open notes 
C---0-0-0--0-0-0-0----0--0--0---0--0--0--0--0--0--0-  played with the A string
G---0-0-0--0-0-0-0----------------------------------  sound good, but may not
C---0-0-0--0-0-0-0----------------------------------  be exact

repeat intro, then....
C---7-7-------------  this starts palm muted and gradually becomes open. it's
G-------8-8-7-7-8-8-  hard to hear the exact pattern, but at the end of the 
C-------------------  phrase, this sounds like what he's playing

repeat heavy part of verse, then...
F---------10-9---                 F---------10-9----9b--7- 
C---5-3-0------0-  stop, then     C---5-3-0------0--------   
G---5-3-0--8-7-0-                 G---5-3-0--8-7-0--7b--5-
C---5-3-0------0-                 C---5-3-0------0--------

F---------10-9---                 F---------10-9--- 
C---5-3-0------0-  open C with    C---5-3-0------0-   
G---5-3-0--8-7-0-  some stuff     G---5-3-0--8-7-0-
C---5-3-0------0-  then,          C---5-3-0------0-

ending...
C---3-1-1-1-1-
G---3-1-1-1-1-  repeat a few times and that's it!
C---3-1-1-1-1-

Comments about this tab

12ptrsfldSTONES - 2005-05-25

hhmmmm, some of this looks better than my tab, but some of my tab looks better than yours. You definately got that 2nd interlude right, where it was hard to hear it. Good job on the tab.


Add a comment/correction

Complimentary Christian Ringtones
Dadamobile and CGR have teamed up to bring your favorite Christian artists right to your phone. Sign up today and get 10 complementary ringtones!
Tab Country
Did you know CGR has a sister site w/ country guitar tabs? Well we do! Its called Tab Country. It has a great archive with a lot of country tabs.
Rockin Tabs
Are you looking for a site that has rock guitar tabs? Then Rockintabs.com is the place for you. It is a budding site with many rock guitar tabs. Submit your tab today.
Tab Gallery
Tab Gallery has a compilation of christian, rock, and country tabs all in one place. Come visit us.