Guitar Tabs
song title    band name

Join Us Today!

Don't strum alone...
be a part of the largest online Christian music community. Browse thousands of guitar tabs and chat w/ musicians like yourself.


It's Free!

This tab has been rated a 1.00 out of 5 for accuracy. (1 vote)Sorry, but you must be logged in to rate this tab.
Click here to log-in, or you can click here to register.
(Registration is free)

All songs owned by corresponding publishing company. If you make copies of any song on this website, be sure to report your usage to CCLI.
Submitted by: prsnthlrd

Much of You
Steven Curtis Chapman

Here is the rest of the song except the Bridge. You can probably figure it out 
with what I have. Awesome song. By the way I figured this song out by watching 
SCC play it in an interview with New Song Cafe on his new DVD The Walk. Enjoy!

Much Of You- Steven Curtis Chapman  Tuning: CGCFGC

Intro:
C---12--12--11--12--12--12--7--5--7--9--12--12--11--12--12--12--7--5--4--5---
G----------------------------------------------------------------------------
C----------------------------------------------------------------------------
F---13--11--9---11--13--11--6--4--6--8--13--11---9--11--13--11--6--4--2--4---
G----------------------------------------------------------------------------
C----------------------------------------------------------------------------

Verse:
C------------2-----------5-------------------2--------5------------
G------------2---2-------5-------------------2---2---5---2---1---3-
C----5---4---3---4---4---4----------5---4----3---4---4---4---3---5-
F----7---7-------4---4--------------7---7--------4-------4---3---5-
G------------------------------------------------------------------
C------------------------------------------------------------------


Chorus:
---------------------2---4---5-----------5-----------------5---2---4---5-----
G------------2---5---2---4---5---2-------5-------------2---5---2---4---5--2--
C----3---2---4---4---3---2---3---4---2---4----3----2---4---4---3---2---3--4--
F----2---2---4-----------------------4---2--------2----2---4--------------4--
G----------------------------------------------------------------------------
C----------------------------------------------------------------------------


Created to Make Much Of Him

Nate

Note: I did not tab the timing, these are just the chord positions. So listen
to the CD to figure out the timing.

Comments about this tab

No comments/corrections found. Add your own

Complimentary Christian Ringtones
Dadamobile and CGR have teamed up to bring your favorite Christian artists right to your phone. Sign up today and get 10 complementary ringtones!
Tab Country
Did you know CGR has a sister site w/ country guitar tabs? Well we do! Its called Tab Country. It has a great archive with a lot of country tabs.
Rockin Tabs
Are you looking for a site that has rock guitar tabs? Then Rockintabs.com is the place for you. It is a budding site with many rock guitar tabs. Submit your tab today.
Tab Gallery
Tab Gallery has a compilation of christian, rock, and country tabs all in one place. Come visit us.