Guitar Tabs
song title    band name

Join Us Today!

Don't strum alone...
be a part of the largest online Christian music community. Browse thousands of guitar tabs and chat w/ musicians like yourself.


It's Free!

This tab has been rated a 4.70 out of 5 for accuracy. (20 votes)Sorry, but you must be logged in to rate this tab.
Click here to log-in, or you can click here to register.
(Registration is free)

All songs owned by corresponding publishing company. If you make copies of any song on this website, be sure to report your usage to CCLI.
Submitted by: 12stones_777

Artist:Kutless
Album:Strong Tower
Song:Take Me In

This song is tuned to Drop d
This is my first tab so sorry if any mess up's

Intro:
e----------------------------------------------------------------
b----5h7-------------------------------5h7-----------------------
g--6---------------------------------6---------------------6-6-6-
d------------7-7-6-4---------2/4-4-------------6---6----4-4---4-- 2x
a----------4---------4-4-----------4------------4-4-4-4----------
d---------4-----------4---0-0---0-----------4-4------4-----------

Verse:
e-----------------------------------------------------------------
b-7-7-7-7-7-7--3-3-3-3-3-3-3--5-5-5-5-5-5-5--3-3-3-3-3--5-5-5-5-5-
g-6-6-6-6-6-6--2-2-2-2-2-2-2--4-4-4-4-4-4-4--2-2-2-2-2--4-4-4-4-4-
d-4-4-4-4-4-4--0-0-0-0-0-0-0--2-2-2-2-2-2-2--0-0-0-0-0--2-2-2-2-2-
a-4-4-4-4-4-4--0-0-0-0-0-0-0--2-2-2-2-2-2-2--0-0-0-0-0--2-2-2-2-2-
d-4-4-4-4-4-4--0-0-0-0-0-0-0--2-2-2-2-2-2-2--0-0-0-0-0--2-2-2-2-2-

Chorus:

e---------------------------------------------------------------------------------
b---------------------------------------------------------------------------------
g---------------------------------------------------------------------------------
d-4-4-4-4-4-4-4-4--2-2-2-2-2-2-2-2--0-0-0-0-0--2-2-2-2-2--4-4-4-4-4--0-0-0--2-2-2- 2x
a-4-4-4-4-4-4-4-4--2-2-2-2-2-2-2-2--0-0-0-0-0--2-2-2-2-2--4-4-4-4-4--0-0-0--2-2-2-
d-4-4-4-4-4-4-4-4--2-2-2-2-2-2-2-2--0-0-0-0-0--2-2-2-2-2--4-4-4-4-4--0-0-0--2-2-2-

2nd verse same 2x
but guitar 2 will intro
chorus same 2x
3rd verse both guitars play intro
chorus same but 3x
4th time of chours

e--------------------------------------------------------------------------------
b--------------------------------------------------------------------------------
g-----------------------------------4-4-4-4-4--6-6-6-6-6--7-7-7-7-7-7-7-7--------
d-4-4-4-4-4-4-4-4--2-2-2-2-2-2-2-2--4-4-4-4-4--6-6-6-6-6--7-7-7-7-7-7-7-7--0-2-4-
a-4-4-4-4-4-4-4-4--2-2-2-2-2-2-2-2--2-2-2-2-2--4-4-4-4-4--5-5-5-5-5-5-5-5--0-2-4-
d-4-4-4-4-4-4-4-4--2-2-2-2-2-2-2-2-----------------------------------------0-2-4-

well there you go if any mess's up's sorry it's my first tab
if any comments e-mail me at blindside_777@hotmail.com 
Everybody Peace and God Bless
Keep on Rockin For Jesus

Comments about this tab

CRloveSkillet13 - 2005-05-26

WOW!This tab is perfect.This is definitely a 5.00!Thank you!
,Chris


guitarist_51 - 2005-06-13

these tabs rock!! good job!! God bless!!


Down_In_Flames - 2005-06-28

great tab dude!!! i'm gonna see if our band can play it in church


GuitBoxSP - 2005-07-21

our band is playing this song tomorrow for a friday night worship session at our church. I was definitely happy to see good tabs so we can actually accomplish this, thanks


bassplaya527 - 2005-08-16

12stones_777, i see that you have tabbed quite a few kutless songs, and i wondered if you would also put them into a chord form so i can adapt it to bass
thanks -bassplaya527


ryan_grooms22 - 2005-08-16

well i will try i will tab it later and anyways i have to name on here i am ryan_grooms22 and 12stones_777


Nojanator - 2005-08-21

Hey Man,

Perfect JOB!!!!!!!!!!!!!! THANKS ALOT!!!!

Jon(THE NOJANATOR)


jakeut2001 - 2005-10-16

Very nice tab. This song is awesome!


BothFeetIn - 2005-10-31

Hi everyone. Don't want to step on anyones toes but, I made a little correction to the intro.

Artist:Kutless
Album:Strong Tower
Song:Take Me In

This song is tuned to Drop d


Intro:
e-------------------------------------------------------------------------
b----5h7-------------------------------5h7---------------------------5h7--
g--6---------------------------------6--------1---1------------6---6------
d------------7-7-6-4---------2/4-4----------2--2---2-----4--4------------- 2x
a----------4---------4-4-----------4--------2---2---2----5--5-------------
d---------4-----------4---0-0---0-----------2-----------------------------

Enjoy!


BothFeetIn - 2005-10-31

Hi everyone. Don't want to step on anyones toes but, I made a little correction to the intro.

Artist:Kutless
Album:Strong Tower
Song:Take Me In

This song is tuned to Drop d


Intro:
e-------------------------------------------------------------------------
b----5h7-------------------------------5h7---------------------------5h7--
g--6---------------------------------6--------1---1------------6---6------
d------------7-7-6-4---------2/4-4----------2--2---2-----4--4-------------
a----------4---------4-4-----------4--------2---2---2----5--5-------------
d---------4-----------4---0-0---0-----------2-----------------------------

Enjoy!


ryan_grooms22 - 2005-11-03

thanks for the correction i havent checked if yours sounds better yet but i like to play the intro the way i figured it out cause i'm usd to playing it that way lol
God Bless
Thanks
-ryan_grooms22


mmggppmgp - 2005-12-06

he it looks like the other one


mmggppmgp - 2005-12-06

the little synth or piano sounding thing or wutever in the end goes like this

e-21~--17-19-17-19-21- (high e)

yah repeats all over and over


Pink Tux - 2006-03-07

I think the little synth thing at the end goes like this. You could take it up an octave from this, though.
E)99--------9-99-----------99--------9---------------
B)--10121012----10121012-----10121012--101210--1012--
G)----------------------11-------------------11----11

E)99--------9-99--------------------------99--------9-
B)--10121012----10121012---1012----1012-----10121012--
G)----------------------11-----1111----11-------------


jojomhenderson - 2006-08-11

Nice Job. Me and a friend are working on this song to do at a worship service in my youth group, and I am the lead guitarist/singer, so I am really glad I could find the RIGHT tab for this song. I would have figured it out, but hey, I am allowed to be lazy sometimes!!!


yohney - 2007-01-04

Verse:
e-----------------------------------------------------------------
b-7-7-7-7-7-7--3-3-3-3-3-3-3--5-5-5-5-5-5-5--3-3-3-3-3--5-5-5-5-5-
g-6-6-6-6-6-6--2-2-2-2-2-2-2--4-4-4-4-4-4-4--2-2-2-2-2--4-4-4-4-4-
d-4-4-4-4-4-4--0-0-0-0-0-0-0--2-2-2-2-2-2-2--0-0-0-0-0--2-2-2-2-2-
a-4-4-4-4-4-4--0-0-0-0-0-0-0--2-2-2-2-2-2-2--0-0-0-0-0--2-2-2-2-2-
d-4-4-4-4-4-4--0-0-0-0-0-0-0--2-2-2-2-2-2-2--0-0-0-0-0--2-2-2-2-2-

Would be all easier to play with b tuned up to c... just a comment... otherwise, great, great tabs!!!


sac346 - 2007-03-21

You don't need chords to make a bass tab. just use the D strings note and that's most likely what he plays.


Add a comment/correction

Complimentary Christian Ringtones
Dadamobile and CGR have teamed up to bring your favorite Christian artists right to your phone. Sign up today and get 10 complementary ringtones!
Tab Country
Did you know CGR has a sister site w/ country guitar tabs? Well we do! Its called Tab Country. It has a great archive with a lot of country tabs.
Rockin Tabs
Are you looking for a site that has rock guitar tabs? Then Rockintabs.com is the place for you. It is a budding site with many rock guitar tabs. Submit your tab today.
Tab Gallery
Tab Gallery has a compilation of christian, rock, and country tabs all in one place. Come visit us.