Guitar Tabs
song title    band name

Join Us Today!

Don't strum alone...
be a part of the largest online Christian music community. Browse thousands of guitar tabs and chat w/ musicians like yourself.


It's Free!

This tab has been rated a 4.00 out of 5 for accuracy. (3 votes)Sorry, but you must be logged in to rate this tab.
Click here to log-in, or you can click here to register.
(Registration is free)

All songs owned by corresponding publishing company. If you make copies of any song on this website, be sure to report your usage to CCLI.
Submitted by: PlAy4hIm92

Intro:
|----------------------------
|----------------------------
|----------------------------
|-55555-55555-88888-33333----
|-55555-55555-88888-33333----
|-55555-55555-88888-33333----



Chorus:
E-----------------------------------------------
B-----------------------------------------------
G-----------------------------------------------
D-1-----------------1--1\0------------------0--0
A-1-----------------1--1\0------------------0--0
D-1-----------------1--1\0------------------0--0

E-----------------------------------------------
B-----------------------------------------------
G-----------------------------------------------
D-5--5--5--5--5--5--5--5--7--7--7--7--8--8--8--8
A-5--5--5--5--5--5--5--5--5--5--5--5--5--5--5--5
D-5--5--5--5--5--5--5--5--5--5--5--5--5--5--5--5


E-----------------------------------------------
B-----------------------------------------------
G-----------------------------------------------
D-5--5--5--5--5--5--5--5--7--7--7--7--8--8--8--8
A-5--5--5--5--5--5--5--5--5--5--5--5--5--5--5--5
D-5--5--5--5--5--5--5--5--5--5--5--5--5--5--5--5

E-----------------------------------------------
B-----------------------------------------------
G-------------------------3-----2h3~------------
D-8--8--8--8--10-10-10-10-1---------------1--1\0
A-8--8--8--8--10-10-10-10-1---------------1--1\0
D-8--8--8--8--10-10-10-10-1---------------1--1\0



Bridge:
E-----------------------------------------------
B-----------------------------------------------
G-----------------------------------------------
D-5--5--5--5--5--5--5--5--0--0--0--0--0--0--0--0
A-5--5--5--5--5--5--5--5--0--0--0--0--0--0--0--0
D-5--5--5--5--5--5--5--5--0--0--0--0--0--0--0--0

E-----------------------------------------------
B-----------------------------------------------
G-----------------------------------------------
D-8--8--8--8--8--8--8--8-10-10-10-10-10-10-10-10
A-8--8--8--8--8--8--8--8-10-10-10-10-10-10-10-10
D-8--8--8--8--8--8--8--8-10-10-10-10-10-10-10-10

I think thats pretty correct Thanks

Comments about this tab

Southernx3bell - 2005-09-10

hey these r tabs can some1 please add the chords


TFKphenomenon07 - 2005-10-10

Yea I can't read this stuff yet so plz plz plz put it in chords


ok... - 2005-11-02

well...i guess you guys have a point that these are the tabs but really those are the chords....you see the song is drop d so all three notes will be played on the same fret. the bottom line in the tabs are the low e (bassy sounding notes i guess you would say?) so just play those tabs and you got your chords.


Dani_Boy - 2006-05-15

This tab covers mostly the basics, it misses out a lot of things, not to mention the Lead Guitar. Pretty nice tab, but you might wanna take some more time next time to get everything tabbed. So, good tab! It does miss out a lot though.


Add a comment/correction

Complimentary Christian Ringtones
Dadamobile and CGR have teamed up to bring your favorite Christian artists right to your phone. Sign up today and get 10 complementary ringtones!
Tab Country
Did you know CGR has a sister site w/ country guitar tabs? Well we do! Its called Tab Country. It has a great archive with a lot of country tabs.
Rockin Tabs
Are you looking for a site that has rock guitar tabs? Then Rockintabs.com is the place for you. It is a budding site with many rock guitar tabs. Submit your tab today.
Tab Gallery
Tab Gallery has a compilation of christian, rock, and country tabs all in one place. Come visit us.