Guitar Tabs
song title    band name

Join Us Today!

Don't strum alone...
be a part of the largest online Christian music community. Browse thousands of guitar tabs and chat w/ musicians like yourself.


It's Free!

This tab has been rated a 4.92 out of 5 for accuracy. (12 votes)Sorry, but you must be logged in to rate this tab.
Click here to log-in, or you can click here to register.
(Registration is free)

All songs owned by corresponding publishing company. If you make copies of any song on this website, be sure to report your usage to CCLI.
Submitted by: Andp_p

Heya heres the song with the intro keyboard part tabbed for you guys that play
this song without a keyboard player
e-------4--------4------------4--------4------0--2----------------
B----2--------2------------2--------2---------0-----4--4h5p4------
G-4--------4------------4--------4------------------4-------46-4--  xhowever
D---------------------------------------------------4-------------    many
A-0---------------------4-----------0---------------6-------------
E---------------------------------------------0-------------------

Lead gat 1            Lead gat 2  

e-------------------- -2h4p2p0-0h2-------0--2h4p2p0-0h2-----2p0--
B------9------9------ ------------0---0h2--------------0---0---0-
G----11--------11---- -------------------------------------------  
D--11-------11------- -------------------------------------------  
A-------------------- -------------------------------------------
E-------------------- -------------------------------------------

This plays for the intro and then comes in at different parts of the song
The chords are

Intro and verse
C#m E B/D# B

Pre Chorus
F#m F#m A A C#m E F# F#
Theres this crazy sound, heaps of delay in the pre chorus by the lead gat
e-2s4-
B-----  
G-----  x3
D-----
A-----
E-----

Chorus
A A C#m A
E E B B
A A C#m A
E E F# F#
In the build up 1st part of the chorus i like to play this on the electric gat
e-12-12-12-12-12-12-12-12-12-12-12-12-12-12
B-10-10-10-10-10-10-10-10--9--9--9--9-10-10
G--9--9--9--9--9--9--9--9--9--9--9--9--9--9
D------------------------------------------
A------------------------------------------
E------------------------------------------
Then come in real big on the open E chord

Back to verse play verse chords to bridge play bridge chords

Bridge
A A C#m B xheaps

Instrumental
F#m C#m B B

Final Chorus
A A C#m A
E E B B
A A C#m A
E E F# F#
End on A for the high last note on Your looooooooove

This is how i play the chords
C#m   E           B/D#  B           F#m   A    F#
e-0- e-0-    e-0- e-0- e-0-    e-0- e-0- e-0- e-2- 
B-0- B-0-    B-0- B-0- B-0-    B-0- B-0- B-0- B-2- 
G-4- G-9- or G-1- G-8- G-8- or G-4- G-2- G-2- G-3- 
D-2- D-9-    D-2- D-9- D-9-    D-4- D-4- D-2- D-4- 
A-4- A-7-    A-2- A-6- A-6-    A-2- A-4- A-0- A-4- 
E-x- E-0-    E-0- E-X- E-7-    E-X- E-2- E-X- E-2- 

I do realise that the chords arn't properly named (e.g. A2 not just A)
But for anyone starting off, this is my way of playing it and I find it 
easiest this way. I like to keep the top 2 strings quite open during the 
song when i play it on the acoustic (play chords properly on electric or 
else it can sound muddy). It's a sick song have fun playing

Comments about this tab

alexander777 - 2005-09-11

all i can say is
awesome!


Iam am Jeremy - 2005-09-13

yeah good job

keep those tabs coming


pinoygitara - 2005-10-03

You're good man keep it up for the Lord!


Andp_p - 2005-10-07

cheers guys much appreciated


pjohn - 2005-10-10

gooooooood tab dude!


Anberlin_Rocks - 2006-02-17

kewl!


GuitarServant - 2006-03-30

Dude all I can say is that you are amazing! The song is flawless! Later!


JcRockstar11 - 2006-04-12

hey it all looks pretty good the first little riff thing is right the second one is to hard the way you play it and doesn't really fit right so i figured out how to play it a new way it's like this

e---------------------------------------------------
b---------------------------------------------------
g----11s13-11s9-9h11--------9h11--11s13-11s9-9h11---
d--------------------9-9h11-----------------------9-
a---------------------------------------------------
E---------------------------------------------------


macky3905 - 2006-09-18

can i have a ass tab for this one?


Ruined14 - 2006-09-27

i agree..i can't c anything wrong


Add a comment/correction

Complimentary Christian Ringtones
Dadamobile and CGR have teamed up to bring your favorite Christian artists right to your phone. Sign up today and get 10 complementary ringtones!
Tab Country
Did you know CGR has a sister site w/ country guitar tabs? Well we do! Its called Tab Country. It has a great archive with a lot of country tabs.
Rockin Tabs
Are you looking for a site that has rock guitar tabs? Then Rockintabs.com is the place for you. It is a budding site with many rock guitar tabs. Submit your tab today.
Tab Gallery
Tab Gallery has a compilation of christian, rock, and country tabs all in one place. Come visit us.