Guitar Tabs
song title    band name

Join Us Today!

Don't strum alone...
be a part of the largest online Christian music community. Browse thousands of guitar tabs and chat w/ musicians like yourself.


It's Free!

Grammatrain - For Me

This tab has been rated a 5.00 out of 5 for accuracy. (2 votes)Sorry, but you must be logged in to rate this tab.
Click here to log-in, or you can click here to register.
(Registration is free)

All songs owned by corresponding publishing company. If you make copies of any song on this website, be sure to report your usage to CCLI.
For Me
by: Grammatrain
CD: Flying
from: boze@longview.net
copyright: 1997 Up in the Mix Music/Nothingsimple Music (BMI)


*LICK:
|-----------------------|
|-----------------------|
|-----------------------|
|--3-2(bend)------------|
|------------3--2-------|
|-----------------1--0--|


INTRO:  Asus2  F/Asus2  Asus2  F/Asus2  D  Dmin  F  E  F  E

VERSE:
Asus2    F       D                Dm
Remember me?  I think I know your name.
Asus2    F   D                Dm
I never knew how to play your game.

CHORUS:
            F              E          F
And could you could you cry for me yeah
                   E                D-Dsus2-Dm   G        F
And bleed you eyes, my soul to keep?
            E                   F
I'd love to know your reason.
                   E             D-Dsus2-*LICK
You keep your eyes away from me.

CHORDS:
Asus2           002200
F/Asus2         033200
D               x00232
Dm              x00231
F               x33211 OR 133211
E               022100
G               320001
Dsus2           X00230
A               002220
B               224442

----------------------
Submitted by Toby du Toit (TPDUTOIT@GLOBAL.CO.ZA)

Solo
------------------------------------------8-10-8--
----10----------------10-12-10------10-12---------
--9----10-12-10----11----------12-9---------------
----------------12--------------------------------
--------------------------------------------------
--------------------------------------------------


--------10-12-13-12-10----------------------------
--12-10----------------10-13----------------------
--------------------------------------------------
--------------------------------------------------
--------------------------------------------------
--------------------------------------------------

Comments about this tab

No comments/corrections found. Add your own

Complimentary Christian Ringtones
Dadamobile and CGR have teamed up to bring your favorite Christian artists right to your phone. Sign up today and get 10 complementary ringtones!
Tab Country
Did you know CGR has a sister site w/ country guitar tabs? Well we do! Its called Tab Country. It has a great archive with a lot of country tabs.
Rockin Tabs
Are you looking for a site that has rock guitar tabs? Then Rockintabs.com is the place for you. It is a budding site with many rock guitar tabs. Submit your tab today.
Tab Gallery
Tab Gallery has a compilation of christian, rock, and country tabs all in one place. Come visit us.