Guitar Tabs
song title    band name

Join Us Today!

Don't strum alone...
be a part of the largest online Christian music community. Browse thousands of guitar tabs and chat w/ musicians like yourself.


It's Free!

This tab has been rated a 4.33 out of 5 for accuracy. (3 votes)Sorry, but you must be logged in to rate this tab.
Click here to log-in, or you can click here to register.
(Registration is free)

All songs owned by corresponding publishing company. If you make copies of any song on this website, be sure to report your usage to CCLI.
Submitted by: collegerocker17

Song  : Chris' Letter

CD    : Once Upon a Shattered Life

Artist: Seventh Day Slumber

Tabbed: collegerocker17
    by

Legal : All rights to this song belong to BEC recordings and Seventh Day 
        Slumber. This tab is not official and should not be considered to be so

Tuning:
  D A D G B E

Key:
  ~ = let ring
  * = harmonic
  . = palm mute
  \ = slide down

 Intro:

  Guitar 1 : Distortion
G|-----------------------------------------------------------------------------|
D|-55-55--------55-55-4-5-7--55-55--------55-55-4-5-7--------------------------|
A|-55-55-5-4-2--55-55--------55-55-5-4-2--55-55--------------------------------|
D|-55-55-5-4-2--55-55--------55-55-5-4-2--55-55--------------------------------|
|
|
| Guitar 2 : Distortion
G|-----------------------------------------------------------------------------|
D|-55-55--------55-55--------55-55--------55-55--7~----------------------------|
A|-55-55-5-4-2--55-55--------55-55-5-4-2--55-55--7~----------------------------|
D|-55-55-5-4-2--55-55--------55-55-5-4-2--55-55--7~----------------------------|

 Verse:
  Guitar 1 : Clean with Liquid Chorus
B|-5-----------5-5-5----------------------5-----------5-5-5--------------------|
G|----------------------------------9--------------------------------------9---|
D|---5-------5----5-------9------9----------5-------5----5-------9------9------|
A|-----5---5------------7------7--------------5---5------------7------7--------|
D|--------------------9------7-------------------------------9------7----------|

|
|
| Guitar 2 : Distortion
G|----------------------------------------------------------5-55-5-5--9-99-9-9-|
D|----------------------------------------------------------5-55-5-5--9-99-9-9-|
A|----------------------------------------------------------5-55-5-5--7-77-7-7-|
D|----------------------------------------------------------5-55-5-5--7-77-7-7-|

 Prechorus:
  Guitar 1 : Distortion
G|------------------------------5-55-5-5--9-99-9-9-----------------------------|
D|----------77-5----------77-5--5-55-5-5--9-99-9-9-----------------------------|
A|-55-5-55-5-----55-5-55-5------3-33-3-3--7-77-7-7-----------------------------|
D|-55-5-55-5-----55-5-55-5-----------------------------------------------------|
|
|
| Guitar 2 : Distortion
G|------------------------------5-55-5-5--9-99-9-9-----------------------------|
D|------------------------------5-55-5-5--9-99-9-9-----------------------------|
A|-55-5-55-5-----55-5-55-5------3-33-3-3--7-77-7-7-----------------------------|
D|-55-5-55-5-----55-5-55-5-----------------------------------------------------|
|
|
| Guitar 1 : Distortion
G|-5-55-5-5--9-99-9-9----------------------------------------------------------|
D|-5-55-5-5--9-99-9-9--3-33-3-3-333333-----------------------------------------|
A|-5-55-5-5--7-77-7-7--3-33-3-3-333333-----------------------------------------|
D|-5-55-5-5--7-77-7-7--3-33-3-3-333333-----------------------------------------|
|
|
| Guitar 2 : Distortion
G|-5-55-5-5--9-99-9-9----------------------------------------------------------|
D|-5-55-5-5--9-99-9-9--3-33-3-3-333333-----------------------------------------|
A|-5-55-5-5--7-77-7-7--3-33-3-3-333333-----------------------------------------|
D|-5-55-5-5--7-77-7-7--3-33-3-3-333333-----------------------------------------|

 Chorus: (x2)
  Guitar 1 : Distortion
B|-------------------------65-3------------------------------------------------|
G|---------------------------------------121212--------------------------------|
D|-2-0-00-0--5-10-10\2-0-00-----5-5-1010-121212--------------------------------|
A|-2-0-00-0--5-10-10\2-0-00-----5-5-1010-101010--------------------------------|
D|-2-0-00-0--5-10-10\2-0-00-----5-5-1010-101010--------------------------------|
|      ..                ..                 .
|
| Guitar 1 : Distortion
B|-------------------------65-3------------------------------------------------|
G|---------------------------------------121212--------------------------------|
D|-2-0-00-0--5-10-10\2-0-00-----5-5-1010-121212--------------------------------|
A|-2-0-00-0--5-10-10\2-0-00-----5-5-1010-101010--------------------------------|
D|-2-0-00-0--5-10-10\2-0-00-----5-5-1010-101010--------------------------------|

 Intro
 Verse
 Prechorus
 Chorus

 Bridge:
  Guitar 1 and 2 : Distortion
G|----------------------------------------------5555-99------------------------|
D|-7-5--7-5--757--7-5--7-5--757--7-5--7-5--757--5555-99------------------------|
A|-7-5--7-5--757--7-5--7-5--757--7-5--7-5--757--3333-77------------------------|
D|-7-5--7-5--757--7-5--7-5--757--7-5--7-5--757---------------------------------|
|
|
|
G|-9----9---------9----9---------9----9---------5555-99------------------------|
D|-7-5--7-5--757--7-5--7-5--757--7-5--7-5--757--5555-99------------------------|
A|-7-5--7-5--757--7-5--7-5--757--7-5--7-5--757--3333-77------------------------|
D|-7-5--7-5--757--7-5--7-5--757--7-5--7-5--757---------------------------------|
 
 Chorus (without distortion for first half)
 Chorus
 End on with Intro

Comments about this tab

collegerocker17 - 2005-05-11

Oops, made a mistake. On the bridge:
G|-------------------------------------------5555-99-|
D|-7-5--7-5--75--7-5--7-5--75--7-5--7-5--75--5555-99-|
A|-7-5--7-5--75--7-5--7-5--75--7-5--7-5--75--3333-77-|
D|-7-5--7-5--75--7-5--7-5--75--7-5--7-5--75----------|


BCCsguitargirl - 2005-10-14

Awesome song , but i need a little help , i get confused on where their playing in the chours an stuff, could you put some lyrics next to them , cause in the song the jump around , and once again i get confused. lol ! THank you !!


tl_guitarnut - 2006-05-27

I don't know, for some reason that chorus sounds a little bit off.


Add a comment/correction

Complimentary Christian Ringtones
Dadamobile and CGR have teamed up to bring your favorite Christian artists right to your phone. Sign up today and get 10 complementary ringtones!
Tab Country
Did you know CGR has a sister site w/ country guitar tabs? Well we do! Its called Tab Country. It has a great archive with a lot of country tabs.
Rockin Tabs
Are you looking for a site that has rock guitar tabs? Then Rockintabs.com is the place for you. It is a budding site with many rock guitar tabs. Submit your tab today.
Tab Gallery
Tab Gallery has a compilation of christian, rock, and country tabs all in one place. Come visit us.