Guitar Tabs
song title    band name

Join Us Today!

Don't strum alone...
be a part of the largest online Christian music community. Browse thousands of guitar tabs and chat w/ musicians like yourself.


It's Free!

This tab has been rated a 2.50 out of 5 for accuracy. (2 votes)Sorry, but you must be logged in to rate this tab.
Click here to log-in, or you can click here to register.
(Registration is free)

All songs owned by corresponding publishing company. If you make copies of any song on this website, be sure to report your usage to CCLI.
Submitted by: Beyer413

Arist; Switchfoot
Tabber: Beyer413

The other version of chords had many flaws, and this is what I believe to be 
better.

C#m - x4665x  C#5 - x466xx
E5 - x024xx  C#7 - x464xx B7 - x242xx
F# - x2443x   E5+ - 0024xx A7 - x021xx

Intro: (C#m F# E5 E5+) x2

Verse: (C#m F# E5 E5+, C#5 F# E5 E5+) x2

Chorus: (C#7 A7 B7 A7) x2

Verse again

Chorus again

Breakdown: 

e-----------------------
B-----------------------
G-9-9-------------------
D-----9-8---9--6-7-6----
A---------9----------9-7
E-----------------------
(Listen for timing. 
e-----------------------------------------------
B-----------------------------------------------
G-----------------------------------------------
D--8-8-8-8/10-10/11-11/13-13/11-11--------------
A--6-6-6-6/8---8/9--9/11-11/-9--9---------------
E-----------------------------------------------


Bridge:

e--------------------------------------------------------------
B--------------------------------------------------------------
G-6-6-6-6-5-5-5-4-4-4-4-4-4-4-4--------------------------------
D-6-6-6-6-5-5-5-4-4-4-4-4-4-4-4-4-4-4-4-4-4-4-4-9-9-9-8-8-8-8--
A-4-4-4-4-3-3-3-2-2-2-2-2-2-2-2-4-4-4-4-4-4-4-4-9-9-9-8-8-8-8--
E-------------------------------2-2-2-2-2-2-2-2-7-7-7-6-6-6-6--

e----------------------------------
B----------------------------------
G----------------------------------
D-7-7-7-7-7-7-7-7-2-2-2-2-2-2-2-2--
A-7-7-7-7-7-7-7-7-2-2-2-2-2-2-2-2--
E-5-5-5-5-5-5-5-5-0-0-0-0-0-0-0-0--  

e----------------------------------
B----------------------------------
G----------------------------------
D-7-7-7-7-7-7-7-7-2-2-2-2-2-2-2-2--
A-7-7-7-7-7-7-7-7-2-2-2-2-2-2-2-2--
E-5-5-5-5-5-5-5-5-0-0-0-0-0-0-0-0-- 

e----------------------------------
B----------------------------------
G----------------------------------
D-7-7-7-7-7-7-7-7-2-2-2-2-2-2-2-2--
A-7-7-7-7-7-7-7-7-2-2-2-2-2-2-2-2--
E-5-5-5-5-5-5-5-5-0-0-0-0-0-0-0-0-- 

e------------------------------------
B------------------------------------
G-----------------------------------R
D-7-7-7-7-7-7-7-7-2-2-2-2-2-2-2-2-L-I
A-7-7-7-7-7-7-7-7-2-2-2-2-2-2-2-2-E-N
E-5-5-5-5-5-5-5-5-0-0-0-0-0-0-0-0-T-G 

Verse/intro repeated till fade

Comments about this tab

Beyer413 - 2005-05-16

One last thing, I forgot this, the Last note of the tabbed part that is supposed to ring is an A power chord, not an E.(It's on the fifth fret for those who don't know)


Add a comment/correction

Complimentary Christian Ringtones
Dadamobile and CGR have teamed up to bring your favorite Christian artists right to your phone. Sign up today and get 10 complementary ringtones!
Tab Country
Did you know CGR has a sister site w/ country guitar tabs? Well we do! Its called Tab Country. It has a great archive with a lot of country tabs.
Rockin Tabs
Are you looking for a site that has rock guitar tabs? Then Rockintabs.com is the place for you. It is a budding site with many rock guitar tabs. Submit your tab today.
Tab Gallery
Tab Gallery has a compilation of christian, rock, and country tabs all in one place. Come visit us.