Guitar Tabs
song title    band name

Join Us Today!

Don't strum alone...
be a part of the largest online Christian music community. Browse thousands of guitar tabs and chat w/ musicians like yourself.


It's Free!

This tab has been rated a 4.33 out of 5 for accuracy. (9 votes)Sorry, but you must be logged in to rate this tab.
Click here to log-in, or you can click here to register.
(Registration is free)

All songs owned by corresponding publishing company. If you make copies of any song on this website, be sure to report your usage to CCLI.
Submitted by: dan r

"Consuming Fire"
Music & lyrics by: Mac Powell
Tabbed by: Danilo Rangel Costa

Tune: Standard(E - A - D - G - B - e)

( ) = almost a dead note
p = Pull Off
h = Hammer
/ = Slide
* = Natural Harmonics

Intro:
Guitar 1: 
 
   E  C  G  D    E  C  A  (X2)
I-------------------------I
I-------------------------I
I-----5-----7-------5-----I
I--2--5--5--7----2--5--7--I
I--2--3--5--5----2--3--7--I
I--0-----3-------0-----5--I

Guitar 2:

I----12*----7*----5*-I-----------------------------------------------------------------I
I-12*-----7*----5*---I-9/11-------11/12-12-12-12/9-9-9-9/7-7-7-------------------------I
I--------------------I------14-14-----------------------------9-9/10-10-10/11-11-11/14-I
I--------------------I-----------------------------------------------------------------I
I--------------------I-----------------------------------------------------------------I
I--------------------I-----------------------------------------------------------------I

Verse:
E G A (X6)
A G D B

Chorus:
E C G D
E C A A
E C G D
E C A A

Bridge:
E G A X2
                      (this last part is only played live)
I-----12*----7*---5*-|--------I
I--12*----7*---5*----|--------I
I--------------------|-5*-----I
I--------------------|--------I
I--------------------|----5*--I
I--------------------|--------I

(Repeat Verse)

(Repeat Chorus)

(Bm D A Em)
I-----------------------------------------------------------I
I---------7------------10-------------------------15--------I
I----6h7---7-(6)--9p7----7-9-------9-------11h12-----12-11--I
I-----------------------------9p7----9-7--------------------I
I-----------------------------------------------------------I
I-----------------------------------------------------------I

(Bm D A Em)
I-----------------------------------------------------------I
I---------7------------10-------------------------15--------I
I----6h7---7-(6)--9p7----7-9-------9-------11h12-----12-11--I
I-----------------------------9p7----9-7--------------------I
I-----------------------------------------------------------I
I-----------------------------------------------------------I

(Bm D A Em Em)
I--------------------------------------------------------I
I---------7------------10--------------------------------I
I----6h7---7-(6)--9p7----7-9-------9------------9--------I
I-----------------------------9p7----9-7---9p7----9-7----I
I--------------------------------------------------------I
I--------------------------------------------------------I

Chorus:
E C G D
E C A A

-Drum Fill-

Guitar Solo:
(Base: same as the chorus)

|----------------------------------------------------------------------|
|--15--15--15-----------------12-15-15b-12h13-13b15r13-12-----14b15r14-|
|--14b-14b-14b--14b-14p12-14-------------------------------12----------|
|----------------------------------------------------------------------|
|----------------------------------------------------------------------|
|----------------------------------------------------------------------|

|----------------------------------------------------|
|-------------10-------------------------------------|
|-----12p9-------12-11h12p11-------------------------|
|--/9------12------------------12-------/14-12-------|
|---------------------------------12/10--------14p12-|
|----------------------------------------------------|

|----------0------0--0--0--0--0--0--0--0--0--0--0--0---15p14-------12b14r-|
|--15------12h15-15/17-17-17-17-17-13-12-12/14-14-14---------15-12--------|
|--14b16r-----------------------------------------------------------------|
|-------------------------------------------------------------------------|
|-------------------------------------------------------------------------|
|-------------------------------------------------------------------------|

Comments about this tab

gcat1486 - 2005-05-11

So how long did it take you to copy from the book?
just kidding not bad at all!
4.5!!!!


guitar boy - 2005-08-02

preety good except the intro


Calmedtron - 2006-03-31

same as ohter guy good job but intro is too difficult
i always found it easier as lead guitar to play

e--12*----14-----12*----7--8--7--5--7--8--5*---
B-12-------12--12-------7--8--7--5--7--8--5*---

the rhythm part is strummed
D DuDu

the * is holding the note out

Also one more thing...all E's are Em's

Good Job though.


3rd_day89 - 2006-07-10

On the solo the last note on the 14 fret you hold for a while and if you use some wah on the solo it'll sound sweet. Third Day knows there effects and how and when to use them and all there songs when they have wah are awesome.
Brad
<*)))><


Add a comment/correction

Complimentary Christian Ringtones
Dadamobile and CGR have teamed up to bring your favorite Christian artists right to your phone. Sign up today and get 10 complementary ringtones!
Tab Country
Did you know CGR has a sister site w/ country guitar tabs? Well we do! Its called Tab Country. It has a great archive with a lot of country tabs.
Rockin Tabs
Are you looking for a site that has rock guitar tabs? Then Rockintabs.com is the place for you. It is a budding site with many rock guitar tabs. Submit your tab today.
Tab Gallery
Tab Gallery has a compilation of christian, rock, and country tabs all in one place. Come visit us.