Guitar Tabs
song title    band name

Join Us Today!

Don't strum alone...
be a part of the largest online Christian music community. Browse thousands of guitar tabs and chat w/ musicians like yourself.


It's Free!

This tab has been rated a 5.00 out of 5 for accuracy. (7 votes)Sorry, but you must be logged in to rate this tab.
Click here to log-in, or you can click here to register.
(Registration is free)

All songs owned by corresponding publishing company. If you make copies of any song on this website, be sure to report your usage to CCLI.
Submitted by: guitardork08

Song: Are You Real?
By: KJ-52
Tuning-DADGBE

Intro
E--------------------------
B--------------------------
G--555555---5/7-77-555-555-
D---------7----------------   x2
A--------------------------
D--------------------------

Verse
E------------------------------------
B------------------------------------
G--555555---5/7-77-555555-4----------
D---------7-----------------3/5-55---
A------------------------------------
D------------------------------------

E------------------------------------
B------------------------------------
G--555555---5/7-77-555555------------
D------------------------------------  x2
A------------------------------------
D------------------------------------

Pre Chorus
E------------------------------------
B----3-------------------------------
G------2----0-0-0--------------------
D------------------------------------  PLAYS 3x's
A------------------------------------
D--0-----0-3--5-5--------------------

Chorus
E-----------------------------
B-----------------------------
G------3-----------3-5--------
D--0-3-3-0-5-3-0-3-3-5-0-5-3--
A--0-3-1-0-5-3-0-3-1-3-0-5-3--
D--0-3---0-5-3-0-3-----0-5-3--

Bridge
E---------------------------
B---------------------------
G---------------------------
D--00-33-55-00-33-55-00-30--
A---------------------------
D---------------------------
plays 8x's then goes back to prechorus then chorus

this tab is just for the general idea...listen to the song
to get the strumming pattern...its not hard at all!

i am positive that this is 100% correct...unless by my
stupid mistake made a typing error but otherwise this
tab is totally correct!!!

 Check out 'The Chemistry', they are awesome!!!
 guitardork08

Comments about this tab

Garek4 - 2005-09-20

THANK YOU! Thank you so much, good sir. This is a tab I have eagerly awaited and dreamed of for a long time. Now I can attempt to play it. YAY!

Mr. Garek


Da Flufsta - 2005-10-18

are you able to tab "its pronoced five two"


D_T_W - 2005-10-22

IT IS RAELLY COOL
SPECIALLY THE TABS


BinacaFreak - 2006-01-07

awesome! thanks for this great tab!
i think you're missing one chord in the chorus though...

Chorus
E-------------------------------
B-------------------------------
G------3-----------3-5----------
D--0-3-3-0-5-3-1-0-3-3-5-0-5-3-1--
A--0-3-1-0-5-3-1-0-3-1-3-0-5-3-1--
D--0-3---0-5-3-1-0-3-----0-5-3-1--


rockstar07 - 2006-04-17

Nice Tab bro! Can you also get songs from Behind The Musik?


guitarist1393 - 2006-06-15

Sweet Dude! Pretty easy to and good 4 beginners. Very Well Done.


Add a comment/correction

Complimentary Christian Ringtones
Dadamobile and CGR have teamed up to bring your favorite Christian artists right to your phone. Sign up today and get 10 complementary ringtones!
Tab Country
Did you know CGR has a sister site w/ country guitar tabs? Well we do! Its called Tab Country. It has a great archive with a lot of country tabs.
Rockin Tabs
Are you looking for a site that has rock guitar tabs? Then Rockintabs.com is the place for you. It is a budding site with many rock guitar tabs. Submit your tab today.
Tab Gallery
Tab Gallery has a compilation of christian, rock, and country tabs all in one place. Come visit us.