Guitar Tabs
song title    band name

Join Us Today!

Don't strum alone...
be a part of the largest online Christian music community. Browse thousands of guitar tabs and chat w/ musicians like yourself.


It's Free!

This tab has been rated a 1.00 out of 5 for accuracy. (1 vote)Sorry, but you must be logged in to rate this tab.
Click here to log-in, or you can click here to register.
(Registration is free)

All songs owned by corresponding publishing company. If you make copies of any song on this website, be sure to report your usage to CCLI.
Submitted by: Guitar_demon_08

hey guys this is my first tab.. but i know that its right... so here it is.. 
and its in drop d


intro
e-----------------------------------------
b-----------------------------------------
g-----------------------------------------
d-000--222--333--555--000--222--333-558---
a-000--222--333--555--000--222--333-558---
d-000--222--333--555--000--222--333-558---
  xxx  xxx  xxx  xxx  xxx  xxx  xxx xxx
verse
e------------------------------------------
b------------------------------------------
g------------------------------------------
d---0----0----0----0----0----0----0----0---     x2
a----0----0----0----0----0----0----0----0--
d-00---22---33---55---00---22---33---55----
  xx   xx   xx   xx   xx   xx   xx   xx

then the intro again

prechourus 
e-----------
b-----------
g-----------
d--12/0-----
a--12/0-----
d--12/0-----


chorus
e----------------------------------------
b----------------------------------------
g----------------------------------------
d--0-13p0-13p0-13p0-13p0--88--88--555----    x4
a--0-13p0-13p0-13p0-13p0--88--88--555----
d--0-13p0-13p0-13p0-13p0--88--88--555----
                              xx

verse

intro

prechorus

chorus

bridge
e-------------------------------------------
b-------------------------------------------
g-------------------------------------------
d--5h8-5h8--5h8-5h8--3h5-3h5--8h10-8h10-----  x2
a--5h8-5h8--5h8-5h8--3h5-3h5--8h10-8h10-----
d--5h8-5h8--5h8-5h8--3h5-3h5--8h10-8h10-----
   x x x x  x x x x  x x x x  x x  x x   

bridge (cont'd)
e---------------------------------------------------------
b---------------------------------------------------------
g---------------------------------------------------------
d--5h8-5h8-5-8^--5h8-5h8-5-8^-3h5-3h5-3-5^--8h10-8h10-8h10
a--5h8-5h8-------5h8-5h8------3h5-3h5-------8h10-8h10-8h10
d--5h8-5h8-------5h8-5h8------3h5-3h5-------8h10-8h10-8h10
    
pre chorus

chorus x2

outro
e--------------------------------------------
b--------------------------------------------
g--------------------------------------------
d--5h8-5h8--5h8-5h8--5h8-5h8--5h8-5h8-5h8-5h8
a--5h8-5h8--5h8-5h8--5h8-5h8--5h8-5h8-5h8-5h8
d--5h8-5h8--5h8-5h8--5h8-5h8--5h8-5h8-5h8-5h8
                              X X X X

x-light palm mute
X-heavy palm mute
h-hammer on
p-pull off
^bend up

alright guys and girls here it is.. this is what i figured it out.. and if it
is wrong then let me know so i can correct it. thank ya

Comments about this tab

ChurchPunk 2 - 2005-05-20

Not bad for a first tab, because it sounds alot like it, but its not really right. I have the tab book. The intro goes like this:
5------5------5------5
0------2------3------5
its played with some regeneration pedal or something.


RockerDan - 2005-06-01

dude with the tab book maybe you can tab all these songs?


Basshammer2000 - 2006-04-07

that would be cool but it is considered copyright


Add a comment/correction

Complimentary Christian Ringtones
Dadamobile and CGR have teamed up to bring your favorite Christian artists right to your phone. Sign up today and get 10 complementary ringtones!
Tab Country
Did you know CGR has a sister site w/ country guitar tabs? Well we do! Its called Tab Country. It has a great archive with a lot of country tabs.
Rockin Tabs
Are you looking for a site that has rock guitar tabs? Then Rockintabs.com is the place for you. It is a budding site with many rock guitar tabs. Submit your tab today.
Tab Gallery
Tab Gallery has a compilation of christian, rock, and country tabs all in one place. Come visit us.