Guitar Tabs
song title    band name

Join Us Today!

Don't strum alone...
be a part of the largest online Christian music community. Browse thousands of guitar tabs and chat w/ musicians like yourself.


It's Free!

This tab has been rated a 4.00 out of 5 for accuracy. (3 votes)Sorry, but you must be logged in to rate this tab.
Click here to log-in, or you can click here to register.
(Registration is free)

All songs owned by corresponding publishing company. If you make copies of any song on this website, be sure to report your usage to CCLI.
Submitted by: Awanabecop

Song: Big House
Artist: Audio Adrenaline
CD: Don't Censor Me
Copyright: 1993 The Forefront Communications Group

          I'm doing a whole complete version of the song!!!!
           all the solo's and fingering! listen to them CD for timing



Intro
E---------------------------------------------------------------------------
B----------------------------------------------------------------------------
G------------------------------------------------9--------------------------
D---------------7--------7-----6---6-------------9----------------------------
A--4--4---------7--------7-----7---7---9s11----------------------------------
E--5--5---7s9------7s9-------------------------------------------------------



E----------------------------------------------------------------------------
B----------------------------------------------------------------------------
G------------------------------------------------9-----9----------------------
D---------------7--------7-----6---6-------------9-----9----9p11--------------
A--4--4---------7--------7-----7---7---9s11-----------------------11----------
E--5--5---7s9-----7s9---------------------------------------------------------

Intro Fig. 1
E-----------------------------------------------------------------------------
B------------------------------------------------------------------------------
G------------------------------------------------9--------------9------------
D---------------7--------7-----6---6-------------9----9s11------9-------------
A--4--4---------7--------7-----7---7---9s11-----------9s11--------------------
E--5--5---7s9-----7s9----------------------------------------------------------

Intro Fig.2
E-----------------------------------------------------------------------------
B-----------------------------------------------------------------------------
G------------------------------------------------9-----9-----------------------
D---------------7--------7-----6---6-------------9-----9----9p11---------------
A--4--4---------7--------7-----7---7---9s11-----------------------11----------
E--5--5---7s9-----7s9------------------------------------------------------

Vs.1                       5x 
E------------9-----9------------------------------------------------------
B--9s10-----10----10-------10-------6s7---7----7----7---6s7------------------
G--8s9-------9-----9-------11-------6s7---7----7----7---6s7----------------
D--------------------------11-------6s7---7----7----7---6s7-------------------
A--------------------------------------------------------------------------
E-------------------------------------------------------------------------

                          5x 
E-----------9-----9---------------------------------------------------------
B--9s10----10----10-------10-------6s7---7----7----7---6s9----6---------------
G--8s9------9-----9-------11-------6s7---7----7----7---6s9----6---------------
D-------------------------11-------6s7---7----7----7---6s9----6------------
A---------------------------------------------------------------------------
E-------------------------------------------------------------------------

                           5x
E------------9-----9-------------------------------------------------------
B--9s10-----10----10-------10--------6s7---7----7----7---6s7------------------
G--8s9-------9-----9-------11--------6s7---7----7----7---6s7------------------
D--------------------------11--------6s7---7----7----7---6s7------------------
A------------------------------------------------------------------------
E----------------------------------------------------------------------

                          5x 
E-----------9-----9----------------------------------------------------------
B--9s10----10----10-------10-------6s7---7----7----7---6s9----6---------------
G--8s9------9-----9-------11-------6s7---7----7----7---6s9----6--------------
D-------------------------11-------6s7---7----7----7---6s9----6---------------
A------------------------------------------------------------------------
E----------------------------------------------------------------------


Intro Fig.2

Vs.1 

Pre Chorus
E--------------------------------------------------------------------
B-------------------------------------------------------------------
G-------------------------------------------4s1-------------------------
D---------------------------0---2---4s6-----------------------------------
A--0---2---2h4----7s0-------------------------------------------------------
E-------------------------------------------------------------------


E-----------------------------------------------------------------------
B----------------------------------------------------------------------
G------------------------------------------------------------------------
D------------------------------------------------7---7p9-----------------
A--0---2---2h4----7s0------5---7----9--------------------9---------------
E-----------------------------------------------------------------------


Chorus
Intro Fig.1

Intro Fig.2

Intro Fig 1

Intro Fig.3
E----------------------------------------------------------------------
B------------------------------------------------------------------------
G------------------------------------------------------------------------
D---------------7--------7------6----------------------------------------
A--4--4---------7--------7------7------------------------------------------
E--5--5---7s9-----7s9------------------------------------------------------



Mini Solo
E---5----8-----------------------------------------------------------------
B---5----8------4s5------------------5s7---5------------------------------
G---------------5s6------------------4s6---4---------------------------------
D--------------------------------------------------4h6------------------
A------------------------3h4s12--------------------------------------------
E--------------------------------------------------------------------------

E---5----8-----------------------------------------------------------------
B---5----8------4s5----------------------------------------------------------
G---------------5s6----------------------------------------------------------
D--------------------------------------------------------------------------
A------------------------3h4s12----------------------------------------------
E--------------------------------------------------------------------------





Vs.2                       5x
E------------9-----9-------------------------------------------------------
B--9s10-----10----10-------10-------6s7---7----7----7---6s7-------------------
G--8s9-------9-----9-------11-------6s7---7----7----7---6s7-------------------
D--------------------------11-------6s7---7----7----7---6s7----------------
A------------------------------------------------------------------------
E----------------------------------------------------------------------

                           5x 
E------------9-----9----------------------------------------------------------
B--9s10-----10----10-------10-------6s7---7----7----7---6s9----6-------------
G--8s9-------9-----9-------11-------6s7---7----7----7---6s9----6--------------
D--------------------------11-------6s7---7----7----7---6s9----6-------------
A------------------------------------------------------------------------
E----------------------------------------------------------------------

Pre Chorus


Chorus
Intro Fig.1

Intro Fig.2

Intro Fig.1

Intro Fig.2


Chorus
Intro Fig.1

Intro Fig.2

Intro Fig.1

Intro Fig.3


Outro Solo
                                                
E----7h9---5---7---5----------------------------
B----10----5---7---5-----------------------------
G-------------------------------------------------
D-------------------------6---9--6s2-------------------
A-------------------------------------------4----------
E-------------------------------------------5----------



In Christ,

Josiah

Awanabecop@aol.com

Comments about this tab

Awanabecop - 2005-05-08

I have to add a little bit of corrections the second part to the mini solo ends like this



E---5----8---------------------------------------------------------------
B---5----8-----4s5------------------5s7---5-----------------------------
G--------------5s6------------------4s6---4-----------------------------
D----------------------------------------------------------------------
A------------------------3h4s12----------------------------------------
E--------------------------------------------------------------------------

and the outro solo is like this

E----7h9---5---7---5----------------------------
B---10-----5---7---5-----------------------------
G-------------------------------------------------
D-------------------------4s6---9--6s2---------------
A------------------------------------------4----------
E------------------------------------------5----------


well, that's it!!!

Josiah


jsoccer - 2005-06-17

looks good


kutlesstrongtwr - 2005-08-02

The slides don't go high enough they don't match pitch with the song, close tho, I'll give you a start

A|4-4-4s7
E|5-5----

your brother in Christ


Awanabecop - 2005-08-17

You must be the person that marked my tab down. Well, it's correct the pitch is right on tune if you listen to the song the slide is on the "low e string"

In Christ,

Josiah


guitarforgod23 - 2005-11-02

good job... it's a tough song to tab...


Add a comment/correction

Complimentary Christian Ringtones
Dadamobile and CGR have teamed up to bring your favorite Christian artists right to your phone. Sign up today and get 10 complementary ringtones!
Tab Country
Did you know CGR has a sister site w/ country guitar tabs? Well we do! Its called Tab Country. It has a great archive with a lot of country tabs.
Rockin Tabs
Are you looking for a site that has rock guitar tabs? Then Rockintabs.com is the place for you. It is a budding site with many rock guitar tabs. Submit your tab today.
Tab Gallery
Tab Gallery has a compilation of christian, rock, and country tabs all in one place. Come visit us.