Guitar Tabs
song title    band name

Join Us Today!

Don't strum alone...
be a part of the largest online Christian music community. Browse thousands of guitar tabs and chat w/ musicians like yourself.


It's Free!

This tab has been rated a 4.33 out of 5 for accuracy. (3 votes)Sorry, but you must be logged in to rate this tab.
Click here to log-in, or you can click here to register.
(Registration is free)

All songs owned by corresponding publishing company. If you make copies of any song on this website, be sure to report your usage to CCLI.
Submitted by: thing_q3

Just the intro to the song, it's repeated throughout.
Not 100% correct, the last part i'm very unsure about.
The most difficult part of the song is getting the rhythm right.

    D      E      A
E--------------------------------------------------
B--7--7---9--9---h10--10---10--10------------------
G--7--7---9--9-----9---9----9---9------------------
D--7--7---9--9---h11--11---11--11------------------
A--------------------------------------------------
E--------------------------------------------------

    D      E      A         E  Eb
E--------------------------------------------------
B--7--7---9--9---h10--10----9--8-------------------
G--7--7---9--9-----9---9----9--8-------------------
D--7--7---9--9---h11--11----9--8-------------------
A--------------------------------------------------
E--------------------------------------------------

    D      E      A
E---------------------------9--12------------------
B--7--7---9--9---h10--10---10--10------------------
G--7--7---9--9-----9---9----9---9------------------
D--7--7---9--9---h11--11---11--11------------------
A--------------------------------------------------
E--------------------------------------------------

    D      E      A   Cm  Bm  A
E-----------------9---8---7---5--------------------
B--7--7---9--9---10---8---7---5--------------------
G--7--7---9--9----9---8---7---6--------------------
D--7--7---9--9---11--------------------------------
A--------------------------------------------------
E--------------------------------------------------


Ok, that's all :) Again, last part is kinda weird, not quite
sure about that, feel free to give suggestions.

Comments about this tab

nate_big12 - 2005-07-31

It sounds like it would be close enough for me. Good job, I thank you cause I love that intro.


dizzydaisy - 2005-08-08

thing_q3 would you happen to have the paino chords? email me at dizzydaisygirl1992@hotmail.com. thx


Add a comment/correction

Complimentary Christian Ringtones
Dadamobile and CGR have teamed up to bring your favorite Christian artists right to your phone. Sign up today and get 10 complementary ringtones!
Tab Country
Did you know CGR has a sister site w/ country guitar tabs? Well we do! Its called Tab Country. It has a great archive with a lot of country tabs.
Rockin Tabs
Are you looking for a site that has rock guitar tabs? Then Rockintabs.com is the place for you. It is a budding site with many rock guitar tabs. Submit your tab today.
Tab Gallery
Tab Gallery has a compilation of christian, rock, and country tabs all in one place. Come visit us.