Guitar Tabs
song title    band name

Join Us Today!

Don't strum alone...
be a part of the largest online Christian music community. Browse thousands of guitar tabs and chat w/ musicians like yourself.


It's Free!

This tab has been rated a 4.40 out of 5 for accuracy. (5 votes)Sorry, but you must be logged in to rate this tab.
Click here to log-in, or you can click here to register.
(Registration is free)

All songs owned by corresponding publishing company. If you make copies of any song on this website, be sure to report your usage to CCLI.
Submitted by: JasonD

Song: Jesus Lord of Heaven
Artist: Kutless
Album: Strong Tower

Hopefully this helps those who needed the intro and verse tabbed!
~ Jay


Intro/Verse:

          (C)			 (C/B)

e|------0-------0---------------0-------0-----------
B|--------1-------1---------------1-------1---------
G|----------0-------0---------------0-------0-------
D|--------------------2---2-------------------2---2-
A|--3-3-------3---------3---2-2-------2---------2---
E|--------------------------------------------------


	  (Am)			  (F/A)

e|------0-------0---------------0-------0-----------
B|--------1-------1---------------1-------1---------
G|----------2-------2---------------2-------2---2---
D|--------------------2---2-3-3-------3-------3---3-
A|--0-0-------0---------0---------------------------
E|--------------------------------------------------


Chorus:

Electric Plays:		Acoustic Plays:  C  G  Am  F

e|--x--x--x--x--
B|--x--x--x--x--
G|--5--x--x--x--
D|--5--5--7--3--
A|--3--5--7--3--
E|--x--3--5--1--


----------------------------------
Chords Used:

C    (x32010)
C/B  (x22010)
Am   (x02210)
F/A  (xx3210)
----------------------------------

Comments about this tab

ryan_grooms22 - 2005-05-27

this is awesome!!thanks!!
god bless
-ryan_grooms22


IncuThrice07 - 2005-06-26

The intro/verse is a bit different...same chords, but different picking arrangement. I tabbed it and it's up at http://www.geocities.com/ggtabs07


mallad - 2005-07-02

actually I looked at that other one, and I know the song drops back to the 3rd on on A then goes up from e, so I'm pretty sure this one here's about right

Good job to both of you tho, keep it up, good song


mallad - 2005-07-02

sounds not quite right on the last section of the intro tho...


DavidFrank - 2005-10-18

Nice Job JD,

Tanx,

df


christianazn - 2006-09-21

nice very, nice i like this tab man


CrossbearerJDC9 - 2006-09-22

The chords are:
Verse: C Em Am F
Chorus: C G Am F

Bridge - Basically picking the Am chord and open strings).
B------1------0-----1-1
G----2------0-----2---- (Repeat As Needed - I think 4x)
D--2------0-----2------

Try it and you'll see its correct or very close. (I play the F as an Fmaj7 and it sounds good).
CrossbearerJDC- Pick Up Your Cross


Add a comment/correction

Complimentary Christian Ringtones
Dadamobile and CGR have teamed up to bring your favorite Christian artists right to your phone. Sign up today and get 10 complementary ringtones!
Tab Country
Did you know CGR has a sister site w/ country guitar tabs? Well we do! Its called Tab Country. It has a great archive with a lot of country tabs.
Rockin Tabs
Are you looking for a site that has rock guitar tabs? Then Rockintabs.com is the place for you. It is a budding site with many rock guitar tabs. Submit your tab today.
Tab Gallery
Tab Gallery has a compilation of christian, rock, and country tabs all in one place. Come visit us.