Guitar Tabs
song title    band name

Join Us Today!

Don't strum alone...
be a part of the largest online Christian music community. Browse thousands of guitar tabs and chat w/ musicians like yourself.


It's Free!

This tab has not yet been rated for accuracy.Sorry, but you must be logged in to rate this tab.
Click here to log-in, or you can click here to register.
(Registration is free)

All songs owned by corresponding publishing company. If you make copies of any song on this website, be sure to report your usage to CCLI.
Submitted by: m3dmastermind

Artist: Steven Curtis Chapman
Album: Signs of Life
Song: Signs of Life
Written By: Steven Curtis Chapman

Copyright (C) Steven Curtis Chapman


This song is played using a capo on the 4th fret. The notes of the 
strings when played on that fret are the ones on the tab so do not
tune your guitar to those notes (unless, of course, you want to).


Guitar I

Ab|--x-2-2-x-x--x-2-2-2-2-2---0-x-0-2-x-2--0-------------------------|
Eb|--3-3-3-x-x--3-3-3-3-3-3---0-x-0-0-x-0--0-------------------------|
Cb|--4-4-4-x-x--4-4-4-4-4-4---0-x-0-0-x-0--0-------------------------|
Gb|--4-4-4-x-x--4-4-4-4-4-4---2-x-2-2-x-2--2-------------------------|
Db|--x-2-2-x-x--x-2-2-2-2-2---2-x-2-2-x-2--2-------------------------|
Ab|--x-2-2-x-x--x-2-2-2-2-2---0-x-0-0-x-0--0-------------------------|


Guitar II

Ab|------------------------------------------------------------------|
Eb|------------------------------------------------------------------|
Cb|------------------------------------------------------------------|
Gb|--4h5-4-----------------------------------------------------------|
Db|--------5-2-------------------------------------------------------|
Ab|------------------------------------------------------------------|


Verse

Ab|--x-2-2-x-x--x-2-2-2-2-2---0-x-0-2-x-2--0-------------------------|
Eb|--3-3-3-x-x--3-3-3-3-3-3---0-x-0-0-x-0--0-------------------------|
Cb|--4-4-4-x-x--4-4-4-4-4-4---0-x-0-0-x-0--0-------------------------|
Gb|--4-4-4-x-x--4-4-4-4-4-4---2-x-2-2-x-2--2-------------------------|
Db|--x-2-2-x-x--x-2-2-2-2-2---2-x-2-2-x-2--2-------------------------|
Ab|--x-2-2-x-x--x-2-2-2-2-2---0-x-0-0-x-0--0-------------------------|

Ab|--0-0-0-0-0-------------------------------------------------------|
Eb|--0-0-0-0-0-------------------------------------------------------|
Cb|--0-0-0-0-0-------------------------------------------------------|
Gb|--5-5-5-5-2-------------------------------------------------------|
Db|--7-6-5-4-3-------------------------------------------------------|
Ab|--0-x-x-x-x-------------------------------------------------------|

Ab|--x-2-2-x-x--x-2-2-2-2-2---0-x-0-2-x-2--0-------------------------|
Eb|--3-3-3-x-x--3-3-3-3-3-3---0-x-0-0-x-0--0-------------------------|
Cb|--4-4-4-x-x--4-4-4-4-4-4---0-x-0-0-x-0--0-------------------------|
Gb|--4-4-4-x-x--4-4-4-4-4-4---2-x-2-2-x-2--2-------------------------|
Db|--x-2-2-x-x--x-2-2-2-2-2---2-x-2-2-x-2--2-------------------------|
Ab|--x-2-2-x-x--x-2-2-2-2-2---0-x-0-0-x-0--0-------------------------|

Ab|--0-0-0-0-0--2----------------------------------------------------|
Eb|--0-0-0-0-0--3----------------------------------------------------|
Cb|--0-0-0-0-0--2----------------------------------------------------|
Gb|--5-5-5-5-2--0----------------------------------------------------|
Db|--7-6-5-4-3--0----------------------------------------------------|
Ab|--0-x-x-x-x--x----------------------------------------------------|


Chorus

Ab|--3-3--0--0-0--2--------------------------------------------------|
Eb|--0-0--1--0-0--3--------------------------------------------------|
Cb|--0-0--0--0-0--2--------------------------------------------------|
Gb|--0-0--2--2-2--0--------------------------------------------------|
Db|--2-2--3--2-2--0--------------------------------------------------|
Ab|--3-3--x--0-0--x--------------------------------------------------|

Key Change

Ab|--0-0--2--2-2--0-----0--2--3--0--2--------------------------------|
Eb|--2-2--3--2-2--0-----0--3--0--1--3--------------------------------|
Cb|--2-2--2--2-2--1-----1--2--0--0--2--------------------------------|
Gb|--2-2--0--4-4--2-----2--0--0--2--0--------------------------------|
Db|--0-0--0--4-4--2-----2--0--2--3--0--------------------------------|
Ab|--x-x--x--2-2--0-----0--x--3--x--x--------------------------------|


I didn't tab the exact strumming patterns, I just tabbed the chords,
you just have to kinda figure out the rhythm and strumming patterns
by listening to it. Good luck. 

Comments about this tab

No comments/corrections found. Add your own

Complimentary Christian Ringtones
Dadamobile and CGR have teamed up to bring your favorite Christian artists right to your phone. Sign up today and get 10 complementary ringtones!
Tab Country
Did you know CGR has a sister site w/ country guitar tabs? Well we do! Its called Tab Country. It has a great archive with a lot of country tabs.
Rockin Tabs
Are you looking for a site that has rock guitar tabs? Then Rockintabs.com is the place for you. It is a budding site with many rock guitar tabs. Submit your tab today.
Tab Gallery
Tab Gallery has a compilation of christian, rock, and country tabs all in one place. Come visit us.