Guitar Tabs
song title    band name

Join Us Today!

Don't strum alone...
be a part of the largest online Christian music community. Browse thousands of guitar tabs and chat w/ musicians like yourself.


It's Free!

This tab has been rated a 2.50 out of 5 for accuracy. (2 votes)Sorry, but you must be logged in to rate this tab.
Click here to log-in, or you can click here to register.
(Registration is free)

All songs owned by corresponding publishing company. If you make copies of any song on this website, be sure to report your usage to CCLI.
Submitted by: Yakka

Tell The World

I love this song and wanted to Tab it so much all credit goes to hillsong i hope this
helps you guys !!! Yakka

Tuning:Standard

Bass line on guitar is as follows
This plays for intro and throught verses 
e|---------------------------------------------------------------------------|
B|---------------------------------------------------------------------------|
G|-5-5-5-3-3-3---------------------------------------------------------------|
D|------------5-5-6-6-6-5-5--------------------------------------------------|
A|--------------------------6-6----------------------------------------------|
E|---------------------------------------------------------------------------|

Guitar screeching bit over bass line as follows

e|---------------------------------------------------------------------------|
B|-7--7--7--7--7--7--7--------3--3--3--3--3--3--3----------------------------|
G|-9b-9b-9b-9b-9b-9b-9b-------6b-6b-6b-6b-6b-6b-6b---------------------------|
D|---------------------------------------------------------------------------|
A|---------------------------------------------------------------------------|
E|---------------------------------------------------------------------------|

Chorus as follows

e|----------------------------------------2-2-2-2-2-2-2-------2-2-2-2-2-2-2--|
B|-2-2-2-2-2-2-2--------------------------2-2-2-2-2-2-2-------3-3-3-3-3-3-3--|
G|-2-2-2-2-2-2-2------1 1 1 1 1 1 1-------2-2-2-2-2-2-2-------2-2-2-2-2-2-2--|
D|-2-2-2-2-2-2-2------2-2-2-2-2-2-2-------4-4-4-4-4-4-4----------------------|
A|--------------------2-2-2-2-2-2-2-------4-4-4-4-4-4-4----------------------|
E|----------------------------------------2-2-2-2-2-2-2----------------------|


| /  slide up
| \  slide down
| h  hammer-on
| p  pull-off
| ~  vibrato
| +  harmonic
| x  Mute note
===============================================================================

Comments about this tab

Yakka - 2005-11-03

Well my tab is very wrong Lol, i have just found it after a year of submitting and its crap please goto a difrent one, Paulm 86 will have a good one..... i will make changes as i can actually read tab now and i can also sorta play the guitar


jason_yu - 2005-12-16

isnt this buy hillsong?


Add a comment/correction

Complimentary Christian Ringtones
Dadamobile and CGR have teamed up to bring your favorite Christian artists right to your phone. Sign up today and get 10 complementary ringtones!
Tab Country
Did you know CGR has a sister site w/ country guitar tabs? Well we do! Its called Tab Country. It has a great archive with a lot of country tabs.
Rockin Tabs
Are you looking for a site that has rock guitar tabs? Then Rockintabs.com is the place for you. It is a budding site with many rock guitar tabs. Submit your tab today.
Tab Gallery
Tab Gallery has a compilation of christian, rock, and country tabs all in one place. Come visit us.