Guitar Tabs
song title    band name

Join Us Today!

Don't strum alone...
be a part of the largest online Christian music community. Browse thousands of guitar tabs and chat w/ musicians like yourself.


It's Free!

Audio Adrenaline - I Hear Jesus Calling

This tab has been rated a 4.00 out of 5 for accuracy. (1 vote)Sorry, but you must be logged in to rate this tab.
Click here to log-in, or you can click here to register.
(Registration is free)

All songs owned by corresponding publishing company. If you make copies of any song on this website, be sure to report your usage to CCLI.
--------------------------------------------------------
| Title:  I Hear Jesus Calling                          |
| By:     Audio Adrenaline                              |
| CD:     Bloom                                         |
| From:   jesusfreak57@hotmail.com (Joel Gompert)       |
| (C) Forefront Communications                          |
---------------------------------------------------------

INTRO:

(Played on top of Bass Guitar which is playing back & forth between E 
and A on beats 1 & 3)
E------------------------|---------------------------|
B---9---------12--9------|---9---------12--9---------|
G----------9-------------|----------9---------9------|
D------11------------11--|------11---------------11--|
A------------------------|---------------------------|
E------------------------|---------------------------|
    E   A  E         A       E  A   E            A



VERSE 1:
(Bass guitar.
  A little strumming on an A chord halfway through and at the end.)


CHORUS:
(Strumming on E and A along with the Bass guitar)


E      A     E        A
I hear Jesus calling....  (and so on...)



(Play the INTRO riff again)


VERSE 2:
(1 Guitar strums just like VERSE 1
  A second guitar starts in half way through the verse and goes back & 
forth between...


                        (Then play this at the end of the verse.)
....these 2 notes.)      RIFF 2
E----------|            ---------------------------|
B----------|            ---------------------------|
G----------|            ---------------------------|
D---9--11--|            --9--11--9-----------------|
A----------|            ------------11--10--9------|
E----------|            -----------------------12--|


CHORUS 2:
(Guitar 1 strums like in CHORUS 1
  Guitar 2 plays RIFF 2 halfway through the chorus and again at the 
end.)


SOLO:
  (Rythym Guitar chords are below the TAB)


E--------------------|---------------------|
B--------------------|---------------------|
G----------9--11--9--|--11^------9--11--9--|
D---9--11------------|-------11------------|
A--------------------|---------------------|
E--------------------|---------------------|
  C#m                    A



E-----------------------------------|
B-----------------------------------|
G---11--9---------------------------|
D----------11--9--11--9-------------|
A------------------------11--10--9--|
E-----------------------------------|
    E



E----------------------------------------|----------------|
B----------------------------------------|----------------|
G---------------------------------9------|------9--11--9--|
D------------------------------------11--|--11------------|
A--------------------------9--11---------|----------------|
E---12--9--7--7--7--9--12----------------|----------------|
    B                                      C#m



E-------------------------|---------------------------|---------------
B------------------12--9--|--12--12--12--9--12--12--9/|--14--14\9-----
G---11^------9--9---------|---------------------------|---------------
D--------11---------------|---------------------------|---------------
A-------------------------|---------------------------|---------------
E-------------------------|---------------------------|---------------
    A                        E                           B

C#m          A           E        B
Softly, and Tenderly, my Jesus is calling.
C#m                 A           B
Calling, calling for you and for me.


CHORUS 3:


   (Voices sing a capella for 1/2 of a normal Chorus.
    Then play the chorus all the way through, the same way you played 
CHORUS 2
    Then play the INTRO riff over and over and fade out.)

Comments about this tab

No comments/corrections found. Add your own

Complimentary Christian Ringtones
Dadamobile and CGR have teamed up to bring your favorite Christian artists right to your phone. Sign up today and get 10 complementary ringtones!
Tab Country
Did you know CGR has a sister site w/ country guitar tabs? Well we do! Its called Tab Country. It has a great archive with a lot of country tabs.
Rockin Tabs
Are you looking for a site that has rock guitar tabs? Then Rockintabs.com is the place for you. It is a budding site with many rock guitar tabs. Submit your tab today.
Tab Gallery
Tab Gallery has a compilation of christian, rock, and country tabs all in one place. Come visit us.