Guitar Tabs
song title    band name

Join Us Today!

Don't strum alone...
be a part of the largest online Christian music community. Browse thousands of guitar tabs and chat w/ musicians like yourself.


It's Free!

This tab has been rated a 2.50 out of 5 for accuracy. (8 votes)Sorry, but you must be logged in to rate this tab.
Click here to log-in, or you can click here to register.
(Registration is free)

All songs owned by corresponding publishing company. If you make copies of any song on this website, be sure to report your usage to CCLI.
Submitted by: merchant

Song: Tell The World
Artist: United Live
Tabbed By: Merchant

Note: There are several different guitar pieces, I'm just 
tabbing what I know you can pick which pieces you want to play ;)

INTRO:

Bass Line:
(An ec. guitar does join in and play along with the bass, 
bass plays it differently though)

e|------------------------------------|
B|------------------------------------|
G|------------------------------------|Repeat as
D|------------------------------------|necessary
A|-9-9-9-7-7-7------------------------|
E|-------------9-9-10-10-10-9-9-9-5-5-|

OR

Bass line:
(Chords)
  
     F#5      E5    C#5    D     C#5    A5
e|-------------------------------------------|
B|-------------------------------------------|
G|-11-11-11--9-9-9--6-6--7-7-7--6-6-6--------|
D|-11-11-11--9-9-9--6-6--7-7-7--6-6-6--7-7-7-|
A|-9--9--9---7-7-7--4-4--5-5-5--4-4-4--7-7-7-|
E|-------------------------------------5-5-5-|

OR

Guitar:
(This one's rough, don't really think it's right)

e|------------|
B|------3-----|
G|-9/11---7\6-| end on 9/11
D|------------|
A|------------|
E|------------|

VERSE:

Note: 	- ^ means upstroke following chord (all others are downstroke)
	
       F#5      D     ? 
e|------------------------|
B|------------------------|
G|-11-11-11-11-7-7-7-^7-7-|
D|-11-11-11-11-7-7-7-^7-7-|
A|-9--9--9--9--5-5-4-^4-4-|
E|------------------------|
                             Repeat as
       F#5      D   A  E5    necessary
e|------------------------|
B|------------------------|
G|-11-11-11-11-7-7-9-^9-9-|
D|-11-11-11-11-7-7-7-^7-9-|
A|-9--9--9--9--5-5-7-^7-7-|
E|------------------------|

OR

Note: 	- High voicing - Try to only play bottom 2 strings (e & B)
	- Use pressure to stop chords ringing 
  
 F#m		 F#m/D
e|-2-|		e|-2-|
B|-2-|		B|-3-|		Repeat as
G|-2-| x4	G|-2-| x4	necessary
D|-4-|		D|-4-|
A|-4-|		A|-4-|
E|-2-|		E|-2-|


PRE CHORUS:

I have absolutely no idea about this guitar, if anyone does I'd appreciate it :)
melkana40@hotmail.com

Alternatively you can continue to play the VERSE chords right through
to the CHORUS.


CHORUS:

Chords:
You can figure out your own strumming this time.

Sry it's confusing cos I cant use lyrics but each
| represents a beat, hope you can figure it out :)
    	 
         Bm7  D    
4/4 	 ||   ||  	Lead in
	 A      E
  	||||  ||||	Line 1
	F#m	D
        ||||  ||||	Line 2
	 A      E
	||||  ||||	Line 3
	F#m     D
	||||  ||||	Line 4

OR

Note:	- x4 means hold for 4 beats not strum 4 times,
	play around with the strumming yourself

   A    E5   A    D
e|--------------------|
B|--------------------|
G|-9----9----9----7---|
D|-7-x4-9-x4-7-x4-7-x4|
A|-7----7----7----5---|
E|--------------------|


BRIDGE:
(Before drums)

    A
e|------|
B|------|
G|--9\--|
D|--7\--|
A|--7\--|
E|------|


Chords:
(After drums)
You work out strumming

	 A     Bm9
4/4	||||  ||||	Line 1
	F#m    D
	||||  ||||	Line 2
 	 
	Repeat as
	necessary

OR

You work out strumming

e|---------------------|
B|---------------------|
G|----------------7----|
D|-7----9----4----7-x4-|
A|-7-x4-9-x4-4-x4-5----|
E|-5----7----2---------|


OUTRO:

Either use CHORUS or BRIDGE chords. Whichever one you choose your 
last chord will be a D which you should let ring at the end.

Another guitar finishes off, but this I have no idea about, 
plz send it to me if u know it melkana40@hotmail.com
	

Thanks please rate, this took me a while so I hope you enjoy ;). 
Send any info, questions, comments to melkana40@hotmail.com 
and TELL THE WORLD!!! \m/

Comments about this tab

merchant - 2005-05-03

Sry, I posted this tab twice cos I didnt think it worked the first time.
Just a few corrections:
During the pre chorus you can play verse chords if you so choose; and
During the outro you can play bridge chords

Have fun :)


takingbcksunday - 2005-05-15

The guitar intro guitar 1

e----------------------------------------
A----------------------------------------
D----------------------------------------
G-------9b11-----9b11-----9b11---7-7--6--
B---7---------7---------7----------------
E----------------------------------------


elykoko - 2005-07-21

the electric guitar on the INTRO goes like this...

e|----7-------5-5-5-5-5-5-5-5----------------------|
B|----9^^^^---7-7-7-7-6-6-6-6----------------------|
G|-------------------------------------------------|
D|-------------------------------------------------|
A|-------------------------------------------------|
E|-------------------------------------------------|


elykoko - 2005-07-21

whoops guys.. correction... its done on the b and g string. lol sorri
e|-------------------------------------------------|
B|----7-------5-5-5-5-5-5-5-5----------------------|
G|----9^^^^---7-7-7-7-6-6-6-6----------------------|
D|-------------------------------------------------|
A|-------------------------------------------------|
E|-------------------------------------------------|


pianostuf1 - 2005-10-15

Tguitar that comes in on the PC plays
e-----------------------------
B-6-6-6-4-4-4----2-2-2-1-1-1-3
G------------5-5--------------
D-----------------------------
A-----------------------------
E-----------------------------

or
e------------------------------------
B------------------------------------
G-10-10-10-8-8-8-5-5-6-6-6-5-5-5-3-3-
D------------------------------------
A-8--8--8--6-6-6-3-3-4-4-4-3-3-3-1-1-
E------------------------------------


pianostuf1 - 2005-10-15

my bad my guitar was tuned down a half step...so its
guitar that comes in on the PC plays
e-----------------------------
B-7-7-7-5-5-5----3-3-3-2-2-2-4
G------------6-6--------------
D-----------------------------
A-----------------------------
E-----------------------------

or
e------------------------------------
B------------------------------------
G-11-11-11-9-9-9-6-6-7-7-7-6-6-6-4-4-
D------------------------------------
A-9--9--9--7-7-7-4-4-5-5-5-4-4-4-2-2-
E------------------------------------


pianostuf1 - 2005-10-15

and the outro is just a high d chord then those individual notes
e------------------------
B-15--15--------15-------
G-14-----14-14-----14-14-
D-12---------------------
A------------------------
E------------------------


strumforjesus - 2006-11-12

What r the chords on the verse and bridge, just the plain, flat out chords?


Add a comment/correction

Complimentary Christian Ringtones
Dadamobile and CGR have teamed up to bring your favorite Christian artists right to your phone. Sign up today and get 10 complementary ringtones!
Tab Country
Did you know CGR has a sister site w/ country guitar tabs? Well we do! Its called Tab Country. It has a great archive with a lot of country tabs.
Rockin Tabs
Are you looking for a site that has rock guitar tabs? Then Rockintabs.com is the place for you. It is a budding site with many rock guitar tabs. Submit your tab today.
Tab Gallery
Tab Gallery has a compilation of christian, rock, and country tabs all in one place. Come visit us.