Guitar Tabs
song title    band name

Join Us Today!

Don't strum alone...
be a part of the largest online Christian music community. Browse thousands of guitar tabs and chat w/ musicians like yourself.


It's Free!

This tab has been rated a 4.00 out of 5 for accuracy. (1 vote)Sorry, but you must be logged in to rate this tab.
Click here to log-in, or you can click here to register.
(Registration is free)

All songs owned by corresponding publishing company. If you make copies of any song on this website, be sure to report your usage to CCLI.
Submitted by: collegerocker17

Artist	:  Falling Up
Album   :  (To be anounced)
Song	:  Exit Calypsan

Legal	:  This tab is not official.  All rights reserved to Falling Up and BEC
           Recordings.

Tabbed  :  collegerocker17
by

Note	:  I took this song from the X 2005 CD, the actual Falling Up album 
           should be released later this year.  This is a complete version of
           the song, and I have done my best to tab the rhythms, but they are
           not perfect.

Legend  :
	
   * = harmonic
   ~ = let ring out

Tuning	:

Guitar 1:  E A D G B E

Guitar 2:  E A D G B E


Intro	:

   Guitar 1  :  Distortion with Delay

E|-----------------------------------------------------------------------------|
B|-----------------------------------------------------------------------------|
G|-----------------------------------------------------------------------------|
D|----7------7------7-------------------7------7------7------------------------|
A|--9--9---9--9---9--9---------------9--9---9--9---9--9------------------------|
E|-----------------------------------------------------------------------------|
|
|  Gutiar 2  :  Distortion with Delay
|
E|-----------------------------------------------------------------------------|
B|-----------------------------------------------------------------------------|
G|-----------------------16--14------------------------16----------------------|
D|-----------------------------------------------------------------------------|
A|-----------------------------------------------------------------------------|
E|-----------------------------------------------------------------------------|


Verse 1  :

   Guitar 1  :  Distortion 

E|-----------------------------------------------------------------------------|
B|-----------------------------------------------------------------------------|
G|-----------------------------------------------------------------------------|
D|-5555-5-5---9999-9-9---5555-5-5---9999-9-9-----------------------------------|
A|-5555-5-5---9999-9-9---5555-5-5---9999-9-9-----------------------------------|
E|-3333-3-3---7777-7-7---3333-3-3---7777-7-7-----------------------------------|
|
|  Gutiar 2  :  Distortion 
|
E|-----------------------------------------------------------------------------|
B|-----------------------------------------------------------------------------|
G|-----------------------------------------------------------------------------|
D|-----------------------------------------------------------------------------|
A|-----------------------------------------------------------------------------|
E|-----------------------------------------------------------------------------|
|
| Guitar 1  :  Distortion
|
E|-----------------------------------------------------------------------------|
B|-----------------------------------------------------------------------------|
G|-----------------------------------------------------------------------------|
D|-5555-5-5---9999-9-9---5555-5-5---9999-9-9-----------------------------------|
A|-5555-5-5---9999-9-9---5555-5-5---9999-9-9-----------------------------------|
E|-3333-3-3---7777-7-7---3333-3-3---7777-7-7-----------------------------------|
|
| Guitar 2  :  Distortion
|
E|-----------------------------------------------------------------------------|
B|---------7*--------------------7*----------7*-7*-----------------------------|
G|--------------------7*-------------------------------------------------------|
D|-----------5*---------7*---------5*------------------------------------------|
A|-----------------------------------------------------------------------------|
E|-----------------------------------------------------------------------------|


Pre-chorus  :

   Guitar 1  :  Distortion 

E|-----------------------------------------------------------------------------|
B|-----------------------------------------------------------------------------|
G|-----------------------------------------------------------------------------|
D|---5~------7~------9~------------5~------7~------9~--------------------------|
A|---5~------7~------9~------------5~------7~------9~--------------------------|
E|---3~------5~------7~------------3~------5~------7~--------------------------|
|
|  Gutiar 2  :  Distortion 
|
E|-----------------------------------------------------------------------------|
B|-----------------------------------------------------------------------------|
G|-----------------------------------------------------------------------------|
D|---5~------7~------9~------------5~------7~------9~--------------------------|
A|---5~------7~------9~------------5~------7~------9~--------------------------|
E|---3~------5~------7~------------3~------5~------7~--------------------------|
 
Chorus  : play 4xs

   Guitar 1  :  Distortion 

E|-----------------------------------------------------------------------------|
B|-----------------------------------------------------------------------------|
G|--------------4-4-4-4-44-----------------------------------------------------|
D|--2-2-2-2-22--4-4-4-4-44--5-5-5-5-55--7-7-7-7-77-----------------------------|
A|--2-2-2-2-22--2-2-2-2-22--5-5-5-5-55--7-7-7-7-77-----------------------------|
E|--0-0-0-0-00--------------3-3-3-3-33--5-5-5-5-55-----------------------------|
|
|  Gutiar 2  :  Distortion 
|
E|-----------------------------------------------------------------------------|
B|-----------------------------------------------------------------------------|
G|--------------4-4-4-4-44-----------------------------------------------------|
D|--2-2-2-2-22--4-4-4-4-44--5-5-5-5-55--7-7-7-7-77-----------------------------|
A|--2-2-2-2-22--2-2-2-2-22--5-5-5-5-55--7-7-7-7-77-----------------------------|
E|--0-0-0-0-00--------------3-3-3-3-33--5-5-5-5-55-----------------------------|



Verse 2  :

Guitar 1  :  Distortion 

E|-----------------------------------------------------------------------------|
B|-----------------------------------------------------------------------------|
G|-----------------------------------------------------------------------------|
D|-5555-5-5---9999-9-9---5555-5-5---9999-9-9-----------------------------------|
A|-5555-5-5---9999-9-9---5555-5-5---9999-9-9-----------------------------------|
E|-3333-3-3---7777-7-7---3333-3-3---7777-7-7-----------------------------------|
|
|  Guitar 2  :  Distortion
|
E|-----------------------------------------------------------------------------|
B|---------7*--------------------7*----------7*-7*-----------------------------|
G|--------------------7*-------------------------------------------------------|
D|-----------5*---------7*---------5*------------------------------------------|
A|-----------------------------------------------------------------------------|
E|-----------------------------------------------------------------------------|
|
|Guitar 1  :  Distortion
|
E|-----------------------------------------------------------------------------|
B|-----------------------------------------------------------------------------|
G|-----------------------------------------------------------------------------|
D|-5555-5-5---9999-9-9---5555-5-5---9999-9-9-----------------------------------|
A|-5555-5-5---9999-9-9---5555-5-5---9999-9-9-----------------------------------|
E|-3333-3-3---7777-7-7---3333-3-3---7777-7-7-----------------------------------|
|
| Guitar 2  :  Distortion
|
E|-----------------------------------------------------------------------------|
B|---------7*--------------------7*----------7*-7*-----------------------------|
G|--------------------7*-------------------------------------------------------|
D|-----------5*---------7*---------5*------------------------------------------|
A|-----------------------------------------------------------------------------|
E|-----------------------------------------------------------------------------|


Pre-chorus  :

   Guitar 1  :  Distortion 

E|-----------------------------------------------------------------------------|
B|-----------------------------------------------------------------------------|
G|-----------------------------------------------------------------------------|
D|---5~------7~------9~------------5~------7~------9~--------------------------|
A|---5~------7~------9~------------5~------7~------9~--------------------------|
E|---3~------5~------7~------------3~------5~------7~--------------------------|
|
|  Gutiar 2  :  Distortion 
|
E|-----------------------------------------------------------------------------|
B|-----------------------------------------------------------------------------|
G|-----------------------------------------------------------------------------|
D|---5~------7~------9~------------5~------7~------9~--------------------------|
A|---5~------7~------9~------------5~------7~------9~--------------------------|
E|---3~------5~------7~------------3~------5~------7~--------------------------|

Chorus  : play 4xs

   Guitar 1  :  Distortion 

E|-----------------------------------------------------------------------------|
B|-----------------------------------------------------------------------------|
G|--------------4-4-4-4-44-----------------------------------------------------|
D|--2-2-2-2-22--4-4-4-4-44--5-5-5-5-55--7-7-7-7-77-----------------------------|
A|--2-2-2-2-22--2-2-2-2-22--5-5-5-5-55--7-7-7-7-77-----------------------------|
E|--0-0-0-0-00--------------3-3-3-3-33--5-5-5-5-55-----------------------------|
|
|  Gutiar 2  :  Distortion 
|
E|-----------------------------------------------------------------------------|
B|-----------------------------------------------------------------------------|
G|--------------4-4-4-4-44-----------------------------------------------------|
D|--2-2-2-2-22--4-4-4-4-44--5-5-5-5-55--7-7-7-7-77-----------------------------|
A|--2-2-2-2-22--2-2-2-2-22--5-5-5-5-55--7-7-7-7-77-----------------------------|
E|--0-0-0-0-00--------------3-3-3-3-33--5-5-5-5-55-----------------------------|


Bridge : play 4xs 

   Guitar 1  :  Distortion 

E|-----------------------------------------------------------------------------|
B|-----------------------------------------------------------------------------|
G|--------------4-4-4-4-44-----------------------------------------------------|
D|--2-2-2-2-22--4-4-4-4-44--5-5-5-5-55--7-7-7-7-77-----------------------------|
A|--2-2-2-2-22--2-2-2-2-22--5-5-5-5-55--7-7-7-7-77-----------------------------|
E|--0-0-0-0-00--------------3-3-3-3-33--5-5-5-5-55-----------------------------|
|
|  Gutiar 2  :  Distortion 
|
E|-----------------------------------------------------------------------------|
B|-----------------------------------------------------------------------------|
G|--------------4-4-4-4-44-----------------------------------------------------|
D|--2-2-2-2-22--4-4-4-4-44--5-5-5-5-55--7-7-7-7-77-----------------------------|
A|--2-2-2-2-22--2-2-2-2-22--5-5-5-5-55--7-7-7-7-77-----------------------------|
E|--0-0-0-0-00--------------3-3-3-3-33--5-5-5-5-55-----------------------------|

[Hold for Two Measures]

Chorus  : play 6xs

   Guitar 1  :  Distortion 

E|-----------------------------------------------------------------------------|
B|-----------------------------------------------------------------------------|
G|--------------4-4-4-4-44-----------------------------------------------------|
D|--2-2-2-2-22--4-4-4-4-44--5-5-5-5-55--7-7-7-7-77-----------------------------|
A|--2-2-2-2-22--2-2-2-2-22--5-5-5-5-55--7-7-7-7-77-----------------------------|
E|--0-0-0-0-00--------------3-3-3-3-33--5-5-5-5-55-----------------------------|
|
|  Gutiar 2  :  Distortion 
|
E|-----------------------------------------------------------------------------|
B|-----------------------------------------------------------------------------|
G|--------------4-4-4-4-44-----------------------------------------------------|
D|--2-2-2-2-22--4-4-4-4-44--5-5-5-5-55--7-7-7-7-77-----------------------------|
A|--2-2-2-2-22--2-2-2-2-22--5-5-5-5-55--7-7-7-7-77-----------------------------|
E|--0-0-0-0-00--------------3-3-3-3-33--5-5-5-5-55-----------------------------|

Comments about this tab

No comments/corrections found. Add your own

Complimentary Christian Ringtones
Dadamobile and CGR have teamed up to bring your favorite Christian artists right to your phone. Sign up today and get 10 complementary ringtones!
Tab Country
Did you know CGR has a sister site w/ country guitar tabs? Well we do! Its called Tab Country. It has a great archive with a lot of country tabs.
Rockin Tabs
Are you looking for a site that has rock guitar tabs? Then Rockintabs.com is the place for you. It is a budding site with many rock guitar tabs. Submit your tab today.
Tab Gallery
Tab Gallery has a compilation of christian, rock, and country tabs all in one place. Come visit us.