Guitar Tabs
song title    band name

Join Us Today!

Don't strum alone...
be a part of the largest online Christian music community. Browse thousands of guitar tabs and chat w/ musicians like yourself.


It's Free!

This tab has not yet been rated for accuracy.Sorry, but you must be logged in to rate this tab.
Click here to log-in, or you can click here to register.
(Registration is free)

All songs owned by corresponding publishing company. If you make copies of any song on this website, be sure to report your usage to CCLI.
Submitted by: mmggppmgp

Song: Mystery of You
Band: BDA
Album: Better Days Ahead
2004 Creative Trust Workshop

Tis song is tight i think sum1 was requestin for it so here it is

Intro: (bend freely with the octaves ^_^)

e---------------
B---------------
G-5-7-9-10--5~~-
D---------------
A-3-5-7-8---3~~-
E---------------

Verse 1:      |<---- neways that note is a note ur suppose to hit but 
              |      I hit it because i think it sounds betta 
Guita 1      \|/
e-3-----------3-            ----------    ---------
B---1-------1---            ---1----0-    ---------
G-----0-0h2----- (3x)  then --2----0-- or ---------
D---------------            ----------    ---7---5-
A--------------- <<<<<|     -0--------    --7---5--
E---------------      |     ------3---    -5---3---
                      |
Guita Two p.m. C durin| and play Am to G during the picked chords above

pre-chorus:

Am C F G

then weirdly modulates... to a different key

Chorus:

D A Bm G... or D5 A5 B5 G5 (2x)
(the otha guita plays the chords arpegio style)
 sumthin like tis
e-----2--------0--------2--------3---
B---3--3-----2--2-----3--3-----0--0--
G--2----2---2----2---4----4---0----0- (2x) im sure their G is like that
D-0----------------------------------
A----------0--------2----------------
E----------------------------3-------
                            
then

Bb C D or Bb5 C5 D5

Verse 2
(Like verse one but without the picked chords but the Am-G part)

back to Pre-chorus and Chorus

Bridge: (right after that C... in da Bb C D part so it starts on 
           the D of that Riff.. Yall r smart)

D  C  Bm  G (or power chords again) 2x

Mini Guitar Riff while Bm is being played(listen n u shall hear it)
e--------------------
B-0-3-5-5h7-5-5h7----
G----------------7-5-
D--------------------
A--------------------
E--------------------

the second time around G is palm muted though

Then this quite picked chorus... 

e-----2--------0--------2-------
B---3--3-----2--2-----3--3------
G--2----2---2----2---4----4-----
D-0--------------------------5--
A----------0--------2--------5--
E----------------------------3--
                            P.M.

Then a couple of choruses...

Last part is basically

D A Bm G like a couple of times i think i even heard the picked chorus too
ur call...

This is wut i the riff thingy that i heard 

e----------------------------------
B----------------------------------
G------10h12-10-10-10-12-10-9------
D-10h12-----------------------10---
A----------------------------------
E----------------------------------

e-------------------------------------------
B-------------------------------------------
G------10h12-10-10-10-12-10-9-9-9-9-7-6-5~~~
D-10h12---------------------------------5~~~
A---------------------------------------7~~~
E-------------------------------------------

GOD BLESS AND RAWK OUT FOR JESUS...
email= michael_97124@hotmail.com

SN= RockinFLip4Life






Comments about this tab

mmggppmgp - 2005-07-28

the slide on the bridge is from a E to and F instead of an E to F#


mmggppmgp - 2005-07-28

e--------------------
B-0-3-5-5h6-5-5h6----
G----------------7-5-
D--------------------
A--------------------

oh yah i think i added chords to the pre-chorus


mmggppmgp - 2005-07-28

the last chords of the chorus is like F G and D... i think


mmggppmgp - 2005-07-28

the last chords of the chorus is like F G and D... i think

wut i get for using electric guitar everything sounds okay...


mmggppmgp - 2005-07-28

darn it i confused myself... help...


Add a comment/correction

Complimentary Christian Ringtones
Dadamobile and CGR have teamed up to bring your favorite Christian artists right to your phone. Sign up today and get 10 complementary ringtones!
Tab Country
Did you know CGR has a sister site w/ country guitar tabs? Well we do! Its called Tab Country. It has a great archive with a lot of country tabs.
Rockin Tabs
Are you looking for a site that has rock guitar tabs? Then Rockintabs.com is the place for you. It is a budding site with many rock guitar tabs. Submit your tab today.
Tab Gallery
Tab Gallery has a compilation of christian, rock, and country tabs all in one place. Come visit us.