Guitar Tabs
song title    band name

Join Us Today!

Don't strum alone...
be a part of the largest online Christian music community. Browse thousands of guitar tabs and chat w/ musicians like yourself.


It's Free!

This tab has been rated a 3.00 out of 5 for accuracy. (4 votes)Sorry, but you must be logged in to rate this tab.
Click here to log-in, or you can click here to register.
(Registration is free)

All songs owned by corresponding publishing company. If you make copies of any song on this website, be sure to report your usage to CCLI.
Submitted by: guitarfreak846

Spending Time
Stellar Kart

ok i went to a Stellar Kart concert and watched the guitarists and
they play the song in drop-d tuning

oh yeah, also this is my first tab


Tuning: DADGBE

Intro
e[--------------------------------------------------------------
b[--------------------------------------------------------------
g[-4-x-x-x-x-------------------------------------------6-8-6-4--    
d[-4-x-x-x-x-4-4-2-x-x-x-x-----6-x-x-x-x-----4-x-x-x-x----------     x2
a[-2-2-2-2-2-----2-x-x-x-x-2-2-6-x-x-x-x-6-6-4-x-x-x-x-4-6-4-2-- 
d[---------------2-2-2-2-2-----6-6-6-6-6-----4-4-4-4-4----------
     p p p p       p p p p       p p p p       p p p p  

then

e[----------------
b[----------------
g[---9-8-11-9-8---
d[------9-------9-
a[----------------
d[----------------

verse
e[-----------------------------------------------------------
b[------------------7-4-5-4-5-4-5-4-3x---7-0-2-0-2-4---------
g[-4---------------------------------------------------------
d[-4--ring---------------------------------------------------
a[-2---------------------------------------------------------
d[-----------------------------------------------------------
                    p p p p p p p p p
pre chourus
e[-----------------------------------------
b[-----------------------------------------
g[-6--8--4--6--8--9-----6--8--4--6--8--9---
d[-6--8--4--6--8--9-----6--8--4--6--8--9---
a[-4--6--2--4--6--7-----4--6--2--4--6--7---
d[-----------------------------------------

Chorus
e[------------------------
b[------------------------
g[-4-----6----------9--11-
d[-4-----6-----6----9--11-
a[-2-----4-----6----7--9--
d[-------------6----------

verse
prechorus

bridge:

there is two guitar parts in this bridge

first both both guitar do a b power chord then

one guitar does 

a[-2-2-2-2-2-2-2-2-2-4-4-4-4-4-4-4-4-----------------------------------------
d[----------------------------------6-6-6-6-6-6-6-6-6-6-2-2-2-2-2-2-2-2-2----

while guitar 2 does


e[--------------------------------
b[-0-4-5-4-5-4-5-4-7-4-5-4-5-4-5-4
g[--------------------------------
d[-------------------------------- over and over
a[--------------------------------
d[--------------------------------

then do chorus twice, then the intro, and then at the end hit a b power chord

thats all folks!

guitarfreak846
email:guitarfreak4him@comcast.net

Comments about this tab

guitarfreak846 - 2005-05-02

if any1 thinks there is a miskate(dought it) plz reply or sumthin


guitarsticks22 - 2005-05-03

dude, why did you put it in drop D? It just makes it harder on the person playing it.


guitarfreak846 - 2005-05-09

because thats how stellar kart played it at the concert i went to


Down_In_Flames - 2005-06-05

its alot easier 2 play it standard


Down_In_Flames - 2005-06-05

how do u no they played it in drop d


guitarfreak846 - 2005-06-28

because i was in front of the guitar player


guitarplayer67 - 2005-07-22

try this for the intro
e--------------------------------------------------------------
b--------------------------------------------------------------
g--------------------------------------------------------------
d-4-----------------4-4----------------------------------------
a-2-2-2-2-2-2-2-2-2-----2-2-2-----------------2-2----4-----------------
e---------------------------0-0-0-0-0-0-0-0-0----0-0-2-2-2-2-2-2-2-2- pm,,,,,,,,,,,,,,, pm,,,,,,,,,,,,,,, pm,,,,,,,,,,,,,,,
e-------------------------------------
b-------------------------5-4-0-7-5-4-
g-------------------------------------
d-------------------------------------
a-6-----------------4-6-4-------------
e-4-4-4-4-4-4-4-4-4-------------------
pm,,,,,,,,,,,,,,,


guitarplayer67 - 2005-07-22

try this for the intro
e--------------------------------------------------------------
b--------------------------------------------------------------
g--------------------------------------------------------------
d-4-----------------4-4----------------------------------------
a-2-2-2-2-2-2-2-2-2-----2-2-2-----------------2-2----4-----------------
e---------------------------0-0-0-0-0-0-0-0-0----0-0-2-2-2-2-2-2-2-2- pm,,,,,,,,,,,,,,, pm,,,,,,,,,,,,,,, pm,,,,,,,,,,,,,,,
e-------------------------------------
b-------------------------5-4-0-7-5-4-
g-------------------------------------
d-------------------------------------
a-6-----------------4-6-4-------------
e-4-4-4-4-4-4-4-4-4-------------------
pm,,,,,,,,,,,,,,,


guitarplayer67 - 2005-07-22

try this for the intro
e--------------------------------------------------------------
b--------------------------------------------------------------
g--------------------------------------------------------------
d-4-----------------4-4----------------------------------------
a-2-2-2-2-2-2-2-2-2-----2-2-2-----------------2-2----4-----------------
e---------------------------0-0-0-0-0-0-0-0-0----0-0-2-2-2-2-2-2-2-2- pm,,,,,,,,,,,,,,, pm,,,,,,,,,,,,,,, pm,,,,,,,,,,,,,,,
e-------------------------------------
b-------------------------5-4-0-7-5-4-
g-------------------------------------
d-------------------------------------
a-6-----------------4-6-4-------------
e-4-4-4-4-4-4-4-4-4-------------------
pm,,,,,,,,,,,,,,,


guitarplayer67 - 2005-07-22

oops i didnt mean to send that 3 times.sorry


stellarguitar - 2005-08-03

Hey drop-d is right but the intro goes like this

e----------------------------------------------------------
B----------------------------------------------------------
G-2-x-x-x-x------------------------------------------------
D-2-x-x-x-x-2-2-0-x-x-x-x-----4-x-x-x-x-----2-x-x-x-x------(X2)
A-0-x-x-x-x-----0-x-x-x-x-0-0-4-x-x-x-x-4-4-2-x-x-x-x-2-4-2
E---------------0-x-x-x-x-----4-x-x-x-x-----2-x-x-x-x------

e-------------
B-------------
G-7-6--9-7-6
D----7--------
A-------------
E-------------


stellarguitar - 2005-08-04

sorry that was not right, my guitar was ot of tune! sorry!


Add a comment/correction

Complimentary Christian Ringtones
Dadamobile and CGR have teamed up to bring your favorite Christian artists right to your phone. Sign up today and get 10 complementary ringtones!
Tab Country
Did you know CGR has a sister site w/ country guitar tabs? Well we do! Its called Tab Country. It has a great archive with a lot of country tabs.
Rockin Tabs
Are you looking for a site that has rock guitar tabs? Then Rockintabs.com is the place for you. It is a budding site with many rock guitar tabs. Submit your tab today.
Tab Gallery
Tab Gallery has a compilation of christian, rock, and country tabs all in one place. Come visit us.