Guitar Tabs
song title    band name

Join Us Today!

Don't strum alone...
be a part of the largest online Christian music community. Browse thousands of guitar tabs and chat w/ musicians like yourself.


It's Free!

This tab has been rated a 4.00 out of 5 for accuracy. (2 votes)Sorry, but you must be logged in to rate this tab.
Click here to log-in, or you can click here to register.
(Registration is free)

All songs owned by corresponding publishing company. If you make copies of any song on this website, be sure to report your usage to CCLI.
Submitted by: Shaneathin86

Song: So Selfish It's Funny
Artist: Showbread
Album: No Sir, Nihilism Is Not Practical
Tooth & Nail Records

It's been a while since i tabbed anything for Showbread so i thought i'd throw 
in a new one.. It's all the darn solos the other songs have.. i can't handle 
em! well here goes.

Standard tuning

Verse (just bent G and E in random places)
e-----------------------------------------------------------------------
B-----------------------------------------------------------------------
G-----------------------------------------------------------------------
D--5bb-22--5bb-22--5bbbb------------------------------------------------
A--5bb-22--5bb-22--5bbbb------------------------------------------------
E--3bb-00--3bb-00--3bbbb------------------------------------------------

Chorus
e-----------------------------------------------------------------------
B-----------------------------------------------------------------------
G-----------------------------------------------------------------------
D--77X-99-1010X-77--44X2--44X0---9999-10101010-9999-7777--44X2--44X2----
A--77X-99-1010X-77--44X2--44X0---9999-10101010-9999-7777--44X2--44X2----
E--55X-77--8-8X-55--22X0--22X0---7777--8-8-8-8-7777-5555--22X0--22X0----

Bridge
e-----------------------------------------------------------------------
B-----------------------------------------------------------------------
G-----------------------------------------------------------------------
D--22---55-22--77-22--55-22--77-22--55-22--77-22------------------------
A--22---55-22--77-22--55-22--77-22--55-22--77-22------------------------
E--00---33-00--55-00--33-00--55-00--33-00--55-00------------------------

(2:11)
e-----------------------------------------------------------------------
B-----------------------------------------------------------------------
G------------------------------5------7-----555-444-222-----------------
D--2------4------5------2------5------7-----555-444-222-----------------
A--2------4------5------2------3(x24)-5(x15)333-222-000-----------------
E--0(x12)-2(x12)-3(x24)-0(x24)------------------------------------------

(2:39)
e-----------------------------------------------------------------------
B-----------------------------------------------------------------------
G-------------------------------5X-55X-55X-555-7X-77X-------------------
D-5X-55X-55X-554-2X-22X-22X-224-5X-55X-55X-555-7X-77X-------------------
A-5X-55X-55X-554-2X-22X-22X-224-3X-33X-33X-333-5X-55X-------------------
E-3X-33X-33X-332-0X-00X-00X-002-----------------------------------------

(2:58)
e-----------------------------------------------------------------------
B-----------------------------------------------------------------------
G-777-555-444-222-777-555-333-222-777-999-111111-121212-----------------
D-777-555-444-222-777-555-333-222-777-999-111111-121212-----------------
A-555-333-222-000-555-333-222-000-555-777--9-9-9-101010-----------------
E-----------------------------------------------------------------------

(3:07)
e-----------------------------------------------------------------------
B-----------------------------------------------------------------------
G-77777777-77777777-12121212-12121212-1212121212121212------------------
D-77777777-99999999-14141414-12121212-1111111111111111------------------
A-----------------------------------------------------------------------
E-----------------------------------------------------------------------

(3:32)
e-----------------------------------------------------------------------
B-----------------------------------------------------------------------
G--77777777----------9999-7777------------------------------------------
D--77777777-55555555-9999-7777-77777777---------------------------------
A--55555555-55555555-7777-5555-77777777---------------------------------
E-----------33333333-----------55555555---------------------------------

That's the song. Enjoy. Questions, comments, editorials, and other nonsense to
Shaneathin86@hotmail.com

                                                       -Shaner

Comments about this tab

Shaneathin86 - 2006-01-22

i really should look over my tabs more before i submit them because at 2:58 that 233 chord should be a 244 chord cause 233 sounds awful and was certainly a mere typo


Add a comment/correction

Complimentary Christian Ringtones
Dadamobile and CGR have teamed up to bring your favorite Christian artists right to your phone. Sign up today and get 10 complementary ringtones!
Tab Country
Did you know CGR has a sister site w/ country guitar tabs? Well we do! Its called Tab Country. It has a great archive with a lot of country tabs.
Rockin Tabs
Are you looking for a site that has rock guitar tabs? Then Rockintabs.com is the place for you. It is a budding site with many rock guitar tabs. Submit your tab today.
Tab Gallery
Tab Gallery has a compilation of christian, rock, and country tabs all in one place. Come visit us.