Guitar Tabs
song title    band name

Join Us Today!

Don't strum alone...
be a part of the largest online Christian music community. Browse thousands of guitar tabs and chat w/ musicians like yourself.


It's Free!

This tab has been rated a 5.00 out of 5 for accuracy. (1 vote)Sorry, but you must be logged in to rate this tab.
Click here to log-in, or you can click here to register.
(Registration is free)

All songs owned by corresponding publishing company. If you make copies of any song on this website, be sure to report your usage to CCLI.
Submitted by: pntbllfreak8807

ok so this is the part of the song that is after the minute of silence.
its jsut the tab for the guitar. not the piano. 
here ya go. its got wierd tuning but it is the only way you can play it 
without tunign to drop c#.

dead poetic- a hoax to live for (ending)

e)--------------0-----------------0------
b)-------5-----4---5---------5---4--5----
g)------6--6------6-6-------6-6----6-6---
d)----6-----6--------6-----6---6------6--
a)--4------------------------------------
c#)----------------------7---------------

-------------0----------------4-----------------
--------5---4--5--------5-----5----5-4----------
-------6-6----6-6------6-6----6-----6-6---------
------6---6------6----6---6---6--------6--------
------------------------------------------------
----5---------------0---------------------------

and repeat that like forever. that's about it. any corrections, let me know.
later dudes and have fun with this song. 

Comments about this tab

Frodo777 - 2006-09-20

hey dude. are you the same Pntbllfreak8807 from xanga? anyway, nice tab dude. sound good. you should have the whole song up though!


Add a comment/correction

Complimentary Christian Ringtones
Dadamobile and CGR have teamed up to bring your favorite Christian artists right to your phone. Sign up today and get 10 complementary ringtones!
Tab Country
Did you know CGR has a sister site w/ country guitar tabs? Well we do! Its called Tab Country. It has a great archive with a lot of country tabs.
Rockin Tabs
Are you looking for a site that has rock guitar tabs? Then Rockintabs.com is the place for you. It is a budding site with many rock guitar tabs. Submit your tab today.
Tab Gallery
Tab Gallery has a compilation of christian, rock, and country tabs all in one place. Come visit us.