Guitar Tabs
song title    band name

Join Us Today!

Don't strum alone...
be a part of the largest online Christian music community. Browse thousands of guitar tabs and chat w/ musicians like yourself.


It's Free!

This tab has been rated a 5.00 out of 5 for accuracy. (1 vote)Sorry, but you must be logged in to rate this tab.
Click here to log-in, or you can click here to register.
(Registration is free)

All songs owned by corresponding publishing company. If you make copies of any song on this website, be sure to report your usage to CCLI.
Submitted by: guitarleth

Song: Wilderness
Band: Supertones
Cd: Loud and clear
Copyright: 2000 supertone songs(SESAC), We Own Your Songs
Tabbed By: Guitarleth

Alrighty, this is my first tab, so tell me if I do ok.
There is only one other tab for this song and all it is is chords and
I fixed the first part of the verse.

Intro  X2
e-----------------------------------------------
B-----------------------------------------------
G-55555555--------------------------------------
D-55555555-33333333-77777777-55555555-----------
A-33333333-33333333-77777777-55555555-----------
E----------11111111-55555555-33333333-----------

Verse part1 (harmonics) X2
e---12--------12--------12--------12------------
B-----12--------12--------12--------12----------
G-------12--------12--------12--------12--------
D-----------------------------------------------
A-----------------------------------------------
E-----------------------------------------------

Verse Part2 X4
e-----------------------------------------------
B-----------------------------------------------
G-xx5xx5----------------------------------------
D-xx5xx5-xx3xx3-xx7xx7-xx5xx5-------------------
A-xx3xx3-xx3xx3-xx7xx7-xx5xx5-------------------
E--------xx1xx1-xx5xx5-xx3xx3-------------------

Chorus play hard  X4
e-----------------------------------------------
B-----------------------------------------------
G-55--------------------------------------------
D-55-33-77-55-----------------------------------
A-33-33-77-55-----------------------------------
E----11-55-33-----------------------------------

Intro
Verse 1
verse 2
Chorus
Intro

Bridge 1  X3
e-----------------------------------------------
B-----------------------------------------------
G-------------------55555555--------------------
D-77777777-55555555-55555555--------------------
A-77777777-55555555-33333333--------------------
E-55555555-33333333-----------------------------

Bridge 2
e-----------------------------------------------
B-----------------------------------------------
G-----------------------------------------------
D-77777777-33333333-77777777-55555555-----------
A-77777777-33333333-77777777-55555555-----------
E-55555555-11111111-55555555-33333333-----------

Bridge 3 X2
e-----------------------------------------------
B-[Palm muted]----------------------------------
G--55555555---[clean]---------------------------
D--55555555----2-2-2----------------------------
A--33333333----2-2-2----------------------------
E--------------0-0-0----------------------------

Bridge 4 
e-----------------------------------------------
B-----------------------------------------------
G----------55555555-44444444----------99999999--
D-55555555-55555555-44444444-77777777-99999999--
A-55555555-33333333-22222222-77777777-77777777--
E-33333333-------------------55555555-----------

Ending
e-----------------------------------------------
B-----------------------------------------------
G-----------------------------------------------
D-33333333-55555555-----------------------------
A-33333333-55555555-----------------------------
E-11111111-33333333-----------------------------


Alright, there it is, an actual tab for this song. You're all welcome.
In Christ, Guitarleth

Comments about this tab

skankinman109 - 2006-03-18

hey the supertones have this song out called imagination, the only place ive heard it was on there myspace. i think it would be cool if someone could tab it. its a good song and i couldnt find the tabs anywhere eles so if someone could do that that would be awsome. god bless everyone.
brad


ska_man26 - 2006-04-20

theres a little fill thing in the chorus, after the G5 chord:

e ---------
b ---------
g ---------
d ---------
a -----3-5-
E -3-5-----

i think thats how it goes. he plays it the after the G5, the first time through chorus. yeah, but rock on and good job on the tab!


diakonos1984 - 2008-05-14

I think the harmonic on the B string during the verse is actually an artificial harmonic, fingered on the first fret and struck on the 13th.


Add a comment/correction

Complimentary Christian Ringtones
Dadamobile and CGR have teamed up to bring your favorite Christian artists right to your phone. Sign up today and get 10 complementary ringtones!
Tab Country
Did you know CGR has a sister site w/ country guitar tabs? Well we do! Its called Tab Country. It has a great archive with a lot of country tabs.
Rockin Tabs
Are you looking for a site that has rock guitar tabs? Then Rockintabs.com is the place for you. It is a budding site with many rock guitar tabs. Submit your tab today.
Tab Gallery
Tab Gallery has a compilation of christian, rock, and country tabs all in one place. Come visit us.