Guitar Tabs
song title    band name

Join Us Today!

Don't strum alone...
be a part of the largest online Christian music community. Browse thousands of guitar tabs and chat w/ musicians like yourself.


It's Free!

This tab has been rated a 4.00 out of 5 for accuracy. (1 vote)Sorry, but you must be logged in to rate this tab.
Click here to log-in, or you can click here to register.
(Registration is free)

All songs owned by corresponding publishing company. If you make copies of any song on this website, be sure to report your usage to CCLI.
Submitted by: xxxLyricxxx

Olivia the band, Troy's bucket
posted by xxxLyricxxx
Olivia rocks out for jesus! spread the word!


Intro 2x's
e------------------------------------------------------------
B------------------------------------------------------------
G---7777------------------------4444-------------------------
D---7777-7-5-4-5-07777-7-5-4-5-04444-7-5-4-5-7-5-555555555555
A---5555----------7777----------2222-------------555555555555
E---x-------------5555---------------------------333333332333


main riff
e-----------------------------------------------------------------------------
B-----------------------------------------------------------------------------
G-----------------------------------------------------------------------------
D----7-5-4-7-5-4-5-4-5-4-5-4-2-4-5-4-2--7-5-4---2-4-5-4-5-4-5-4-2-4-5-4-2-----
A---5----------------------------------5------0---------------------------5---
E---------5-------------------------------------------------------------------

Verses AND chorus (repeated)(palm mute)
e-----------------------------------------------------------------------------
B-----------------------------------------------------------------------------
G---77777777-----------44444444------------77777777----------44444444---------
D---77777777--77777777-44444444--55555555--77777777-77777777-44444444-55555555
A---55555555--77777777-22222222--55555555--55555555-77777777-22222222-55555555
E-------------55555555-----------33333333-----------55555555----------33333333

Solo during bridge
e--12-10-8-12-12-10-8-15-12-10-8-12-12-12-12-12/13-12-10-8--------------------
B-----------------------------------------------------------------------------
G-----------------------------------------------------------------------------
D-----------------------------------------------------------------------------
A-----------------------------------------------------------------------------
E-----------------------------------------------------------------------------


Comments about this tab

No comments/corrections found. Add your own

Complimentary Christian Ringtones
Dadamobile and CGR have teamed up to bring your favorite Christian artists right to your phone. Sign up today and get 10 complementary ringtones!
Tab Country
Did you know CGR has a sister site w/ country guitar tabs? Well we do! Its called Tab Country. It has a great archive with a lot of country tabs.
Rockin Tabs
Are you looking for a site that has rock guitar tabs? Then Rockintabs.com is the place for you. It is a budding site with many rock guitar tabs. Submit your tab today.
Tab Gallery
Tab Gallery has a compilation of christian, rock, and country tabs all in one place. Come visit us.