Guitar Tabs
song title    band name

Join Us Today!

Don't strum alone...
be a part of the largest online Christian music community. Browse thousands of guitar tabs and chat w/ musicians like yourself.


It's Free!

This tab has been rated a 4.00 out of 5 for accuracy. (4 votes)Sorry, but you must be logged in to rate this tab.
Click here to log-in, or you can click here to register.
(Registration is free)

All songs owned by corresponding publishing company. If you make copies of any song on this website, be sure to report your usage to CCLI.
Submitted by: IncuThrice07

-------------------------------------------------------------------------------
              ALL THE HEAVENS - Third Day
-------------------------------------------------------------------------------

By:  Gary(garyhale@spu.edu)

CAPO 8TH FRET!!!

h - hammer on
p - pull off
~ - let ring out

e|---------------------------------------------------------------------------|
B|-----0-----0-3-----------0-------0---0-3-1---0-----------------0~----------|
G|---------0-----2h4p2-0-2-------0---0-----0---0-2---0h2-2-----2-0~----------|
D|-0h2---0-----0---------------2---------0---2-----0-----0---0-0-------------|
A|---------------------------2-------------3---------------------------------|
E|-----3-------------------0-----------0---------2-------2-2-----3~----------|

e|---------------------------------------------------------------------------|
B|-----0-----0-3-----------0-------0---0-3-1---0-----------------0~----------|
G|---------0-----2h4p2-0-2-------0---0-----0---0-2---0h2-2-----2-0~----------|
D|-0h2---0-----0---------------2---------0---2-----0-----0---0-0-------------|
A|---------------------------2-------------3---------------------------------|
E|-----3-------------------0-----------0---------2-------2-2-----3~----------|

e|---3-0---0---0-------0-----------3-2-0---0---0---3---2----0h2p0------------|
B|-3-0-------1-----3---1---3---0---0-0-1---1---1---1---3--3-------3----------|
G|-0-0---0-----------0---0---0---0-0-0-----------------2---------------------|
D|-0-0-----------2-----------------0-0---2---2---2---2-0---------------------|
A|-----3-------------------------------3-------------------------------------|
E|-3-------------------------------3-----------------------------------------|

e|-3-2-0---0---0-------0-----------------------------------------------------|
B|-0-0-------1-----3---1---3---0-------0----0-1---0-----------------0~-------|
G|-0-0---0-----------0---0---0-------0----0---0---0---2---0h2-2-----0~-------|
D|-0-0-----------2-----------------2------------2-----0-0-----0--------------|
A|-----3-------------------------2------------3-------------------0----------|
E|-3---------------------------0------------------------------2-2---3~-------|

E-mail me any questions you have.  garyhale@spu.edu
===============================================================================

Comments about this tab

tennisguy224 - 2005-04-24

You will never cease to amaze me, Gary. How do you tab so well? Great job man!

God Bless
Shane


David wood - 2005-04-30

HOW ABOUT "GARY HALE" FOR PREASDENT!!!!!!!!


ephesians5:14 - 2005-04-30

ok like, woa! something must be exreamly wrong with you(good way i promise)
cause this tab is awsome!!! this is the only one that
i've found that is right so THANK YOU THANK YOU THANK YOU!!


IncuThrice07 - 2005-05-19

Thanks for the compliments guys...I'm glad the tab is working out well for all of you! Keep on rockin' to sweet tunes!


DavidAlvarado31 - 2005-05-28

Good job on the tab, but there were a few errors. Small ones, no worries. I sampled and looped the main riff and timestretched it to here all the notes and this is what I came up with:

e|-----------------------------------------------------------------------------------------------------|
B|-------0------0h3-------------------0--------0------0---3----1------0----------------------------0~--|
G|----------0----------2---4p2p0--2----------0---0-------------0------0---2-----0h2---2-------2----0~---|
D|-0h2----------0------0----------------------------------0--------2----------0-------0----0--0---------|
A|--------------------------------------2----------------------3----------------------------------------|
E|-------3----------------------------0---0-----------0-------------------2-----------2--2---------3~---|

God Bless.
-David


HolyFamilyFiat - 2005-06-18

This sounds great! Thank you so much!! I love this song, and you did a great job!! :) ~jessica


christian_latin - 2005-06-28

great tab!!
its just a little confusing but great job

God bless


EZdrifter3 - 2005-10-03

I am new to tabbing. I really like this song and would love to be able to play it. If there are any hint's you might have to being able to play this song I would love it! Thanks
EZ


Add a comment/correction

Complimentary Christian Ringtones
Dadamobile and CGR have teamed up to bring your favorite Christian artists right to your phone. Sign up today and get 10 complementary ringtones!
Tab Country
Did you know CGR has a sister site w/ country guitar tabs? Well we do! Its called Tab Country. It has a great archive with a lot of country tabs.
Rockin Tabs
Are you looking for a site that has rock guitar tabs? Then Rockintabs.com is the place for you. It is a budding site with many rock guitar tabs. Submit your tab today.
Tab Gallery
Tab Gallery has a compilation of christian, rock, and country tabs all in one place. Come visit us.