Guitar Tabs
song title    band name

Join Us Today!

Don't strum alone...
be a part of the largest online Christian music community. Browse thousands of guitar tabs and chat w/ musicians like yourself.


It's Free!

This tab has been rated a 4.50 out of 5 for accuracy. (2 votes)Sorry, but you must be logged in to rate this tab.
Click here to log-in, or you can click here to register.
(Registration is free)

All songs owned by corresponding publishing company. If you make copies of any song on this website, be sure to report your usage to CCLI.
Submitted by: tomcrooz

Blind
Lifehouse

Heres the tabbed version of the intro for this song. It's played in drop D tuning
on the album, but I've seen this song played a half step down live. Im working on 
the rest, so stay tuned.


e---------------------------------------------0--0--
B---------------------------------------------0--0--
G-----------------------------11--/9--\9------2--1--
D--9--7--9------6--4--6--------x--/x--\x------2--2--
A--7--7--7------4--4--4--------9--/7--\7------x--x--
D--7--7--7------4--4--4--------0--/0--\0------2--2--

Comments about this tab

tomcrooz - 2005-04-19

e----------------------------------------------0--0--
B----------------------------------------------0--0--
G-----------------------------11--/9--\11------2--1--
D--9--7--9------6--4--6--------x--/x--\x-------2--2--
A--7--7--7------4--4--4--------9--/7--\9-------x--x--
D--7--7--7------4--4--4--------0--/0--\0-------2--2--


I miss typed the slide in the third bar of the intro. sry bout that.


raulsalas - 2005-06-04

Make sure you use the following hammers and pulls and add another power-chord in the verse:

e------------------------------------------------0--0--
B------------------------------------------------0--0--
G-------------------------------11--/9--\11------2--1--
D--9--7--9h11p9--6--4--6-7-------x--/x--\x-------2--2--
A--7--7--7-------4--4--4-4-------9--/7--\9-------x--x--
D--7--7--7-------4--4--4-4-------0--/0--\0-------2--2--

*Also, I'm almost positive that the last two chords in the intro (2x2200) & (2x2100), are inaccurate, or they need something added, but I am working on them. :)
raulsalas


Add a comment/correction

Complimentary Christian Ringtones
Dadamobile and CGR have teamed up to bring your favorite Christian artists right to your phone. Sign up today and get 10 complementary ringtones!
Tab Country
Did you know CGR has a sister site w/ country guitar tabs? Well we do! Its called Tab Country. It has a great archive with a lot of country tabs.
Rockin Tabs
Are you looking for a site that has rock guitar tabs? Then Rockintabs.com is the place for you. It is a budding site with many rock guitar tabs. Submit your tab today.
Tab Gallery
Tab Gallery has a compilation of christian, rock, and country tabs all in one place. Come visit us.