Guitar Tabs
song title    band name

Join Us Today!

Don't strum alone...
be a part of the largest online Christian music community. Browse thousands of guitar tabs and chat w/ musicians like yourself.


It's Free!

This tab has been rated a 4.00 out of 5 for accuracy. (7 votes)Sorry, but you must be logged in to rate this tab.
Click here to log-in, or you can click here to register.
(Registration is free)

All songs owned by corresponding publishing company. If you make copies of any song on this website, be sure to report your usage to CCLI.
Submitted by: leng_teng

Title: One Way
Artist: Hillsong
Album: More Than Life
Tabbed By: Anderson Luy (leng_teng@yahoo.com)

Intro:

Guitar1:
e|---------------|---------------|---------------|---------------|
B|---------------|---------------|---------------|---------------|
G|---------------|---------------|---------------|---------------|
D|--------8-8----|--------8-8----|---------------|---------------|
A|6-6-9-9-6-6-9-9|6-6-9-9-6-6-9-9|6-6-6-6-6-6-6-6|7-7-6-6-4-4-6-4|
E|4-4-7-7-----7-7|4-4-7-7-----7-7|4-4-4-4-4-4-4-4|4-4-4-4-4-4-4-0|

e|---------------|---------------|---------------|---------------|
B|---------------|---------------|---------------|---------------|
G|---------------|---------------|---------------|---------------|
D|---------------|---------------|---------------|---------------|
A|4-4-4-4-4-4-4-4|4-4-4-4-4-4-4-4|2-2-2-2-2-2-2-2|2-2-2-2-2-2-2-2|
E|2-2-2-2-2-2-2-2|2-2-2-2-2-2-2-0|0-0-0-0-0-0-0-0|0-0-0-0-0-0-0-0|

Verse:

Guitar1
e|---------------|---------------|---------------|---------------|
B|---------------|---------------|---------------|---------------|
G|---------------|---------------|---------------|---------------|
D|---------------|---------------|---------------|---------------|
A|9-9-9-9-9-9-9-9|9-9-9-9-9-9-9-4|6-6-6-6-6-6-6-6|6-6-6-6-6-6-6-4|
E|7-7-7-7-7-7-7-7|7-7-7-7-7-7-7-2|4-4-4-4-4-4-4-4|4-4-4-4-4-4-4-0|

e|---------------|---------------|---------------|---------------|
B|---------------|---------------|---------------|---------------|
G|---------------|---------------|---------------|---------------|
D|---------------|---------------|---------------|---------------|
A|4-4-4-4-4-4-4-4|4-4-4-4-4-4-4-4|2-2-2-2-2-2-2-2|2-2-2-2-2-2-2-2|
E|2-2-2-2-2-2-2-2|2-2-2-2-2-2-2-0|0-0-0-0-0-0-0-0|0-0-0-0-0-0-0-0|

e|---------------|---------------|---------------|---------------|
B|---------------|---------------|---------------|---------------|
G|---------------|---------------|---------------|---------------|
D|---------------|---------------|---------------|---------------|
A|9-9-9-9-9-9-9-9|9-9-9-9-9-9-9-4|6-6-6-6-6-6-6-6|6-6-6-6-6-6-6-4|
E|7-7-7-7-7-7-7-7|7-7-7-7-7-7-7-2|4-4-4-4-4-4-4-4|4-4-4-4-4-4-4-0|

e|---------------|---------------|---------------|---------------|
B|---------------|---------------|---------------|---------------|
G|---------------|---------------|---------------|---------------|
D|---------------|---------------|---------------|---------------|
A|4-4-4-4-4-4-4-4|4-4-4-4-4-4-4-4|2-2-2-2-2-2-2-2|2-2-2-2-2-2-2-2|
E|2-2-2-2-2-2-2-2|2-2-2-2-2-2-2-0|0-0-0-0-0-0-0-0|0-0-0-0-0-0-0-0|

Chorus:(Guitar1 together with guitar2)

Guitar1:
e|---------------|---------------|---------------|---------------|
B|---------------|---------------|---------------|---------------|
G|---------------|---------------|---------------|---------------|
D|---------------|---------------|---------------|---------------|
A|9-9-9-9-9-9-9-9|4-4-4-4-4-4-4-4|6-6-6-6-6-6-6-6|2-2-2-2-2-2-2-2|
E|7-7-7-7-7-7-7-7|2-2-2-2-2-2-2-2|4-4-4-4-4-4-4-4|0-0-0-0-0-0-0-0|

e|---------------|---------------|---------------|---------------|
B|---------------|---------------|---------------|---------------|
G|---------------|---------------|---------------|---------------|
D|---------------|---------------|---------------|---------------|
A|9-9-9-9-9-9-9-9|4-4-4-4-4-4-4-4|6-6-6-6-6-6-6-6|7-7-7-7-7-7-7-7|
E|7-7-7-7-7-7-7-7|2-2-2-2-2-2-2-2|4-4-4-4-4-4-4-4|5-5-5-5-5-5-5-5|

Guitar2: (Capo on 4th fret)
e|7-7-7-7-7-7-7-7|6-6-6-6-6-6-6-6|7-7-7-7-7-7-7-7|7-7-7-7-7-7-7-7|
B|7-7-7-7-7-7-7-7|7-7-7-7-7-7-7-7|7-7-7-7-7-7-7-7|7-7-7-7-7-7-7-7|
G|4-4-4-4-4-4-4-4|6-6-6-6-6-6-6-6|4-4-4-4-4-4-4-4|4-4-4-4-4-4-4-4|
D|4-4-4-4-4-4-4-4|4-4-4-4-4-4-4-4|6-6-6-6-6-6-6-6|6-6-6-6-6-6-6-6|
A|6-6-6-6-6-6-6-6|x-x-x-x-x-x-x-x|6-6-6-6-6-6-6-6|7-7-7-7-7-7-7-7|
E|7-7-7-7-7-7-7-7|x-x-x-x-x-x-x-x|4-4-4-4-4-4-4-4|x-x-x-x-x-x-x-x|

e|7-7-7-7-7-7-7-7|6-6-6-6-6-6-6-6|7-7-7-7-7-7-7-7|5-5-5-5-5-5-5-5|
B|7-7-7-7-7-7-7-7|7-7-7-7-7-7-7-7|7-7-7-7-7-7-7-7|5-5-5-5-5-5-5-5|
G|4-4-4-4-4-4-4-4|6-6-6-6-6-6-6-6|4-4-4-4-4-4-4-4|6-6-6-6-6-6-6-6|
D|4-4-4-4-4-4-4-4|4-4-4-4-4-4-4-4|6-6-6-6-6-6-6-6|7-7-7-7-7-7-7-7|
A|6-6-6-6-6-6-6-6|x-x-x-x-x-x-x-x|6-6-6-6-6-6-6-6|7-7-7-7-7-7-7-7|
E|7-7-7-7-7-7-7-7|x-x-x-x-x-x-x-x|4-4-4-4-4-4-4-4|5-5-5-5-5-5-5-5|

Interlude:(Guitar1 together with guitar2)

Guitar1:
e|---------------|---------------|---------------|---------------|
B|---------------|---------------|---------------|---------------|
G|8-8-6-8-8-8-6-8|8-8-6-8-9-8-6-8|8-8-6-8-8-8-6-8|8-8-6-8-9-8-6--|
D|---------------|---------------|---------------|--------------9|
A|---------------|---------------|---------------|---------------|
E|---------------|---------------|---------------|---------------|

Guitar2: (Capo on 4th fret)
e|7-7-7-7-7-7-7-7|7-7-7-7-7-7-7-7|7-7-7-7-7-7-7-7|7-7-7-7-7-7-7-7|
B|7-7-7-7-7-7-7-7|7-7-7-7-7-7-7-7|7-7-7-7-7-7-7-7|7-7-7-7-7-7-7-7|
G|4-4-4-4-4-4-4-4|4-4-4-4-4-4-4-4|4-4-4-4-4-4-4-4|4-4-4-4-4-4-4-4|
D|6-6-6-6-6-6-6-6|6-6-6-6-6-6-6-6|6-6-6-6-6-6-6-6|6-6-6-6-6-6-6-6|
A|6-6-6-6-6-6-6-6|7-7-7-7-7-7-7-7|6-6-6-6-6-6-6-6|7-7-7-7-7-7-7-7|
E|4-4-4-4-4-4-4-4|x-x-x-x-x-x-x-x|4-4-4-4-4-4-4-4|x-x-x-x-x-x-x-x|

Verse2:
(Same as Verse1)

Chorus: One Way...
        One Way...
Chorus: One Way...
        One Way...
Bridge:(Guitar1 together with guitar2)

Guitar1
e|---------------|---------------|---------------|---------------|
B|---------------|---------------|---------------|---------------|
G|---------------|---------------|---------------|---------------|
D|---------------|---------------|---------------|---------------|
A|9-9-x-9-9-x-9-x|4-4-x-4-4-x-4-x|6-6-x-6-6-x-6-x|2-2-x-2-2-x-2-x|
E|7-7-x-7-7-x-7-x|2-2-x-2-2-x-2-x|4-4-x-4-4-x-4-x|0-0-x-0-0-x-0-x|

e|---------------|---------------|---------------|---------------|
B|---------------|---------------|---------------|---------------|
G|---------------|---------------|---------------|---------------|
D|---------------|---------------|---------------|---------------|
A|6-6-6-6-6-6-6-4|4-4-4-4-4-4-4-4|2-2-2-2-2-2-2-2|2-2-2-2-2-2-2-2|
E|4-4-4-4-4-4-4-0|2-2-2-2-2-2-2-0|0-0-0-0-0-0-0-0|0-0-0-0-0-0-0-0|



e|---------------|---------------|---------------|---------------|
B|---------------|---------------|---------------|---------------|
G|---------------|---------------|---------------|---------------|
D|---------------|---------------|---------------|---------------|
A|9-9-9-9-9-9-9-9|4-4-4-4-4-4-4-4|6-6-6-6-6-6-6-6|2-2-2-2-2-2-2-2|
E|7-7-7-7-7-7-7-7|2-2-2-2-2-2-2-2|4-4-4-4-4-4-4-4|0-0-0-0-0-0-0-0|

e|---------------|---------------|---------------|---------------|
B|---------------|---------------|---------------|---------------|
G|---------------|---------------|---------------|---------------|
D|---------------|---------------|---------------|---------------|
A|6-6-6-6-6-6-6-4|4-4-4-4-4-4-4-4|2-2-2-2-2-2-2-2|2-2-2-2-2-2-2-2|
E|4-4-4-4-4-4-4-0|2-2-2-2-2-2-2-0|0-0-0-0-0-0-0-0|0-0-0-0-0-0-0-0|



e|---------------|---------------|---------------|---------------|
B|---------------|---------------|---------------|---------------|
G|---------------|---------------|---------------|---------------|
D|---------------|---------------|---------------|---------------|
A|9-9-9-9-9-9-9-9|4-4-4-4-4-4-4-4|6-6-6-6-6-6-6-6|2-2-2-2-2-2-2-2|
E|7-7-7-7-7-7-7-7|2-2-2-2-2-2-2-2|4-4-4-4-4-4-4-4|0-0-0-0-0-0-0-0|

e|---------------|---------------|---------------|---------------|
B|---------------|---------------|---------------|---------------|
G|---------------|---------------|---------------|---------------|
D|---------------|---------------|---------------|---------------|
A|6-6-6-6-6-6-6-4|4-4-4-4-4-4-4-4|2-2-2-2-2-2-2-2|2-2-2-2-2-2-2-2|
E|4-4-4-4-4-4-4-0|2-2-2-2-2-2-2-0|0-0-0-0-0-0-0-0|0-0-0-0-0-0-0-0|



e|---------------|---------------|---------------|---------------|
B|---------------|---------------|---------------|---------------|
G|---------------|---------------|---------------|---------------|
D|---------------|---------------|---------------|---------------|
A|9-9-9-9-9-9-9-9|4-4-4-4-4-4-4-4|6-6-6-6-6-6-6-6|2-2-2-2-2-2-2-2|
E|7-7-7-7-7-7-7-7|2-2-2-2-2-2-2-2|4-4-4-4-4-4-4-4|0-0-0-0-0-0-0-0|

e|---------------|---------------|---------------|---------------|
B|---------------|---------------|---------------|---------------|
G|---------------|---------------|---------------|---------------|
D|---------------|---------------|---------------|---------------|
A|6-6-6-6-6-6-6-4|4-4-4-4-4-4-4-4|2-2-2-2-2-2-2-2|2-2-2-2-2-2-2-2|
E|4-4-4-4-4-4-4-0|2-2-2-2-2-2-2-0|0-0-0-0-0-0-0-0|0-0-0-0-0-0-0-0|



Guitar2:
e|---------------|---------------|---------------|---------------|
B|---------------|---------------|---------------|---------------|
G|---------------|---------------|---------------|---------------|
D|---------------|---------------|---------------|---------------|
A|---------------|---------------|---------------|---------------|
E|---------------|---------------|---------------|---------------|

e|---------------|---------------|---------------|---------------|
B|---------------|---------------|---------------|---------------|
G|---------------|---------------|---------------|---------------|
D|x-x-8-9-----9--|x-x-8-9-----9--|----9-------9--|----9-------9--|
A|----------9---9|----------9---9|7-7---7-7-7---7|7-7---7-7-7---7|
E|---------------|---------------|---------------|---------------|



e|---------------|---------------|---------------|---------------|
B|---------------|---------------|---------------|---------------|
G|---------------|---------------|---------------|---------------|
D|----9-------9--|----9-------9--|----9-------9--|----9-------9--|
A|7-7---7-7-7---7|7-7---7-7-7---7|7-7---7-7-7---7|7-7---7-7-7---7|
E|---------------|---------------|---------------|---------------|

e|---------------|---------------|---------------|---------------|
B|---------------|---------------|---------------|---------------|
G|---------------|---------------|---------------|---------------|
D|x-x-8-9--------|x-x-8-9--------|x-x-8-9-x-x-8-9|x-x-8-9-x-x-8-9|
A|----------9----|----------9----|---------------|---------------|
E|---------------|---------------|---------------|---------------|



e|7-7-7-7-7-7-7-7|6-6-6-6-6-6-6-6|7-7-7-7-7-7-7-7|7-7-7-7-7-7-7-7|
B|7-7-7-7-7-7-7-7|7-7-7-7-7-7-7-7|7-7-7-7-7-7-7-7|7-7-7-7-7-7-7-7|
G|4-4-4-4-4-4-4-4|6-6-6-6-6-6-6-6|4-4-4-4-4-4-4-4|4-4-4-4-4-4-4-4|
D|4-4-4-4-4-4-4-4|4-4-4-4-4-4-4-4|6-6-6-6-6-6-6-6|6-6-6-6-6-6-6-6|
A|6-6-6-6-6-6-6-6|x-x-x-x-x-x-x-x|6-6-6-6-6-6-6-6|7-7-7-7-7-7-7-7|
E|7-7-7-7-7-7-7-7|x-x-x-x-x-x-x-x|4-4-4-4-4-4-4-4|x-x-x-x-x-x-x-x|

e|7-7-7-7-7-7-7-7|6-6-6-6-6-6-6-6|7-7-7-7-7-7-7-7|7-7-7-7-7-7-7-7|
B|7-7-7-7-7-7-7-7|7-7-7-7-7-7-7-7|7-7-7-7-7-7-7-7|7-7-7-7-7-7-7-7|
G|4-4-4-4-4-4-4-4|6-6-6-6-6-6-6-6|4-4-4-4-4-4-4-4|4-4-4-4-4-4-4-4|
D|6-6-6-6-6-6-6-6|4-4-4-4-4-4-4-4|6-6-6-6-6-6-6-6|6-6-6-6-6-6-6-6|
A|6-6-6-6-6-6-6-6|x-x-x-x-x-x-x-x|7-7-7-7-7-7-7-7|7-7-7-7-7-7-7-7|
E|4-4-4-4-4-4-4-4|x-x-x-x-x-x-x-x|x-x-x-x-x-x-x-x|x-x-x-x-x-x-x-x|



e|7-7-7-7-7-7-7-7|6-6-6-6-6-6-6-6|7-7-7-7-7-7-7-7|7-7-7-7-7-7-7-7|
B|7-7-7-7-7-7-7-7|7-7-7-7-7-7-7-7|7-7-7-7-7-7-7-7|7-7-7-7-7-7-7-7|
G|4-4-4-4-4-4-4-4|6-6-6-6-6-6-6-6|4-4-4-4-4-4-4-4|4-4-4-4-4-4-4-4|
D|4-4-4-4-4-4-4-4|4-4-4-4-4-4-4-4|6-6-6-6-6-6-6-6|6-6-6-6-6-6-6-6|
A|6-6-6-6-6-6-6-6|x-x-x-x-x-x-x-x|6-6-6-6-6-6-6-6|7-7-7-7-7-7-7-7|
E|7-7-7-7-7-7-7-7|x-x-x-x-x-x-x-x|4-4-4-4-4-4-4-4|x-x-x-x-x-x-x-x|

e|7-7-7-7-7-7-7-7|6-6-6-6-6-6-6-6|7-7-7-7-7-7-7-7|7-7-7-7-7-7-7-7|
B|7-7-7-7-7-7-7-7|7-7-7-7-7-7-7-7|7-7-7-7-7-7-7-7|7-7-7-7-7-7-7-7|
G|4-4-4-4-4-4-4-4|6-6-6-6-6-6-6-6|4-4-4-4-4-4-4-4|4-4-4-4-4-4-4-4|
D|6-6-6-6-6-6-6-6|4-4-4-4-4-4-4-4|6-6-6-6-6-6-6-6|6-6-6-6-6-6-6-6|
A|6-6-6-6-6-6-6-6|x-x-x-x-x-x-x-x|7-7-7-7-7-7-7-7|7-7-7-7-7-7-7-7|
E|4-4-4-4-4-4-4-4|x-x-x-x-x-x-x-x|x-x-x-x-x-x-x-x|x-x-x-x-x-x-x-x|


Chorus:(Strum!! Strum!! Strum!!)

Guitars:
B  B  B, (One Way!!)
F# F# F#, (Jesus!!)
G#m........
E........

B  B  B, (One Way!!)
F# F# F#, (Jesus!!)
G#m........
A........


Chorus:
B........
F#........
G#m........
E........
B........
F#........
G#m........
A................
B (End)


Comments about this tab

leng_teng - 2005-04-28

Top that ;)


anewdoman - 2005-04-29

B
I lay my life down at Your feet
G#m
Youíre the only One I need
F# E (Repeat progression)
I turn to You and You are always there
In troubled times, itís You I seek
I put You first thatís all Iíll need
I humble all I am, all to You

B F# G#m
One way, Jesus, Youíre the only One
E
That I could live for
B F# G#m
One way, Jesus, Youíre the only One
A (G#m E G#m E)
That I could live for

You are always, always there
Every how and everywhere
Your grace abounds so deeply within me
You will never ever change
Yesterday, today the same
Forever Ďtil forever meets no end

B F#
You are the Way, the Truth and the Life
G#m E G#m
We live by faith and not by sight, for You
F# E
Weíre living all for You


Caleb_Isaacs - 2005-09-05

You Can Also Play

verse:
G Em7 D C

Chorus:
G D Em7 C

Bridge:
G D Em7 C Em7 D C


Add a comment/correction

Complimentary Christian Ringtones
Dadamobile and CGR have teamed up to bring your favorite Christian artists right to your phone. Sign up today and get 10 complementary ringtones!
Tab Country
Did you know CGR has a sister site w/ country guitar tabs? Well we do! Its called Tab Country. It has a great archive with a lot of country tabs.
Rockin Tabs
Are you looking for a site that has rock guitar tabs? Then Rockintabs.com is the place for you. It is a budding site with many rock guitar tabs. Submit your tab today.
Tab Gallery
Tab Gallery has a compilation of christian, rock, and country tabs all in one place. Come visit us.