Guitar Tabs
song title    band name

Join Us Today!

Don't strum alone...
be a part of the largest online Christian music community. Browse thousands of guitar tabs and chat w/ musicians like yourself.


It's Free!

This tab has been rated a 4.00 out of 5 for accuracy. (8 votes)Sorry, but you must be logged in to rate this tab.
Click here to log-in, or you can click here to register.
(Registration is free)

All songs owned by corresponding publishing company. If you make copies of any song on this website, be sure to report your usage to CCLI.
Submitted by: jjaammeess

"Offering"
by Third Day

Capo 2nd Fret

Intro | Em D| G | Em D| G |

Em          D    G
Magnificent Holy Father
Em         D            G
I stand in awe of all I see
C          G               Em
Of all the things You have created
C                               Dsus4
But still You choose to think of me

Em     D                G
Who am I that You should suffer
Em        D              G
Your very life to set me free
C        G            Em
The only thing I can give You
C      G                D
Is the life You gave to me
           C              G
This is my offering, dear Lord
           C                D
This is my offering to You, God
          Em           D
And I will give You my life
         G             C 
For Itís all I have to give
C                      D       Em        Em D G Em D G
Because You gave Your life for me
Em          D             G
I stand before You at this altar
Em      D              G
So many have given You more
C         G               Em
I may not have much I can offer
C          G              D
Yet what I have is truly Yours
          C              G
This is my offering, dear Lord
           C                D
This is my offering to You, God
           Em          D
And I will give You my life
        G              C
For Itís all I have to give
C                     D        Em
Because You gave Your life for me

Bridge Em D G C Em Em D G C Em A

This is my offering

Solo - | C | G | C |D
____________________________________________________________

OFFERING SOLO

hey guys and girls for that matter, ive been looking around for the 
offering solo and it has been hard to find, so i sat down and did it myself,
its an ok job, theres probably a few mistakes, but email the corrections if
you have any!( p_lake_91@hotmail.com )
thanks, live for god
peter

b - bend

E -----------7------------------|---------14--------------------|
B ---6-9-6----------------------|------14----14-----------------|
G -----------------b9--7--------|-------------------------------|
D ------------------------------|-------------------------------|
A ------------------------------|-------------------------------| 
E ------------------------------|-------------------------------|

E -------------14-12-----14-----|----14-17-14-12----------------|
B ---12-13-14---------14--------|-------------------------------|
G ------------------------------|-------------------------------|
D ------------------------------|-------------------------------|
A ------------------------------|-------------------------------| 
E ------------------------------|-------------------------------|

E ------------------------------|
B ---12ó14b---------------------|
G ------------------------------|
D ------------------------------|
A ------------------------------| 
E ------------------------------|

Comments about this tab

mmggppmgp - 2005-05-09

i like it dude... good boost for learning the song... thanks... 5!! Rawk for JESUS


mmggppmgp - 2005-05-09

well the tab is not that accurate but its good enoght to start with... ill hav one of my sis tryin to figure the song out figure the solo out


Crusader4Him - 2005-05-09

I have not been playing the guitar for very long and i can't seem to figure out the strum pattern for this song. Could someone please post that. Thank You and God Bless


gcat1486 - 2005-05-11

Go to the request forums and click on worship toghther archives and you should be able to find third day doing the demonstration of the song.


mmggppmgp - 2005-05-11

E -----------7------------------|---------14--------------------|
B ---6-9-6----------------------|------14----14-----------------|
G -----------------b9--7--------|-------------------------------|
D ------------------------------|-------------------------------|
A ------------------------------|-------------------------------|
E ------------------------------|-------------------------------|

^^^---------------------------^^^

this part of the tab is in the wrong strings

its suppose to be like

E ------------------------------|---------14--------------------|
B ---------7--------------------|------14----14-----------------|
G ---6-9-6----------------------|-------------------------------|
D ---------------9b7b(bend)-----|-------------------------------|
A ---------------------at-the---|-------------------------------|
E ----------------------end-----|-------------------------------|
-------------------------of the measure... like lower and full

i hope u get what i mean.. the rest is good enought to work with


brother-helen - 2005-05-23

Thanks for doing this song! I love it, it's so awesome. Way to go!


lakey - 2005-05-30

sorry, i did make a mistake mmggppmgp
i had it tabbed like that i must of just transferred to the computer wrong, sorry for any inconvenience, any more corrections, email me at p_lake_91@hotmail.com

by the way, this tab can also be played f#m E A2 and so on, but it still works the way it is


sixstringes777 - 2005-07-02

both of the solos are incorrect.
I'm not sure of the exact way... yet
I'm trying to use Third Day's new
video Wire Live to figure it out.
This song is on the bonus material.
Brad has a capo on the 7th fret
when he plays the solo.


lakey - 2005-08-10

can i just say something! does it really matter HOW they play it, its just they play it, cos it doesnt matter whether its played with a capo,. what if there is some suckers out there with out a capo, then this tabs for them!


unforeseen - 2006-04-15

this song is the version for anyone with a capo... the other song by this name listed below is in the same key as the song is played, for those without a capo.
i know the solos but i am a pianist, not a guitar player so i have no idea how to write it lol
RoB


Add a comment/correction

Complimentary Christian Ringtones
Dadamobile and CGR have teamed up to bring your favorite Christian artists right to your phone. Sign up today and get 10 complementary ringtones!
Tab Country
Did you know CGR has a sister site w/ country guitar tabs? Well we do! Its called Tab Country. It has a great archive with a lot of country tabs.
Rockin Tabs
Are you looking for a site that has rock guitar tabs? Then Rockintabs.com is the place for you. It is a budding site with many rock guitar tabs. Submit your tab today.
Tab Gallery
Tab Gallery has a compilation of christian, rock, and country tabs all in one place. Come visit us.