Guitar Tabs
song title    band name

Join Us Today!

Don't strum alone...
be a part of the largest online Christian music community. Browse thousands of guitar tabs and chat w/ musicians like yourself.


It's Free!

This tab has been rated a 3.00 out of 5 for accuracy. (8 votes)Sorry, but you must be logged in to rate this tab.
Click here to log-in, or you can click here to register.
(Registration is free)

All songs owned by corresponding publishing company. If you make copies of any song on this website, be sure to report your usage to CCLI.
Submitted by: guitrman

Song: Spending Time
Artist: Stellar Kart
Album: All Gas. No Brake
Standard Tuning

Key:
Pm,= palm mute
~  = let ring 
Intro: 
Play 2 Times:

E------------------------------------------------------------------|
B------------------------------------------------------------------|
G------------------------------------------------------------------|
D-4---------4--4---------------------------------------------------|
A-2-22222222-22--2----------2--2--4---------4--4--6---------4-6-4--|
E----------------0-00000000--00---2-22222222-22---4-44444444-------|
    Pm,,,,,, ,,    ,,,,,,,,  ,,     ,,,,,,,, ,,     ,,,,,,,,

Followed by This:

E----------------|
B-5-4-0--7-5-4-2-|
G----------------|
D----------------|
A----------------|
E----------------|

Verse:
Play Ounce

E---------------------------------------------------------------------|
B--------5-0-5-0-4-0-4-0-5-0-5-0-5-4-2-0-5-0-5-0-4-0-2-0-2-0-2-4-2-0--|
G---------------------------------------------------------------------|
D--4~-----------------------------------------------------------------|
A--2~-----------------------------------------------------------------|
E---------------------------------------------------------------------|
         Pm,,,,,,,,,,,,,,,,,,,,,,,,,,,,,,,,,,,,,,,,,,,,,,,,,,,,,,,,,

Chorus: 
Play 2 Times w/ delay

E----------------------------------------------------------------------|
B----------------------------------------------------------------------|
G----------------------------------------------------------------------|
D--4444444444444444----------------------------------------------------|
A--2222222222222222-222222222222222-6666666666666666-4444444444444444--|
E-------------------000000000000000-4444444444444444-2222222222222222--|

Comments about this tab

guitrman - 2005-04-21

This song works best with two guitars, one playing the palm mutes and one on lead. Have fun.


guitrman - 2005-04-22

If you rate this tab less than a four, it's because you can't do it. Don't rate it if you can't play it.


sXcountry - 2005-06-15

Dude...what about the bridge and stuff???


gu11y - 2007-09-04

he is right this tab is 100% correct with what it shows


Add a comment/correction

Complimentary Christian Ringtones
Dadamobile and CGR have teamed up to bring your favorite Christian artists right to your phone. Sign up today and get 10 complementary ringtones!
Tab Country
Did you know CGR has a sister site w/ country guitar tabs? Well we do! Its called Tab Country. It has a great archive with a lot of country tabs.
Rockin Tabs
Are you looking for a site that has rock guitar tabs? Then Rockintabs.com is the place for you. It is a budding site with many rock guitar tabs. Submit your tab today.
Tab Gallery
Tab Gallery has a compilation of christian, rock, and country tabs all in one place. Come visit us.