Guitar Tabs
song title    band name

Join Us Today!

Don't strum alone...
be a part of the largest online Christian music community. Browse thousands of guitar tabs and chat w/ musicians like yourself.


It's Free!

This tab has been rated a 3.43 out of 5 for accuracy. (7 votes)Sorry, but you must be logged in to rate this tab.
Click here to log-in, or you can click here to register.
(Registration is free)

All songs owned by corresponding publishing company. If you make copies of any song on this website, be sure to report your usage to CCLI.
Submitted by: Texrab

Gone
Switchfoot

This song is pritty easy. I just sat down for a half an hour and tabed the song.

Intro
(Guitar 2)              (Guitar 1)                 

e--------------|        e-------------------|
B--------------|        B-------------------|
G----5---13----|        G----5-5---5-5------|
D----5---13----|X4 then D----5-5---5-5-5----|x4 (guitar 2 continues same thing
A----7---11----|        A----7-7---7-7-5----|    throughout intro)
E--------------|        E--------------7----|
 Verse
(guitar 2)              (Guitar 1)
e--------------|        e-------------------|
B--------------|        B-------------------|
G----5---13----|        G----5-5---5-5------|
D----5---13----|X8      D----5-5---5-5-5----|x8 
A----7---11----|        A----7-7---7-7-5----|    
E--------------|        E--------------7----|
Pre-Chorus
(Guitar 1)

e------------------|
B------------------|
G------------------|
D----7--9--7--9----|
A----7--9--7--9----|
E----5--7--5--7----|
Chorus
(Guitar 1)

e------------------|                                    e---------|
B------------------|                                    B---------|
G----9--7--11------|                                    G---------|   
D----9--7--11--9---|x2 (on the second time end w/ this) D----10---| 
A----7--7--11--9---|                                    A----10---|
E-------5--9---7---|                                    E----8----|
Bridge
(Guitar 1)

e-------------------------------------------------|
B-------------------------------------------------|
G----9--9-9-9-9--12--12-12-12-12--14--14-14-14-14-|
D----9--9-9-9-9--12--12-12-12-12--14--14-14-14-14-|x2
A----7--7-7-7-7--10--10-10-10-10--12--12-12-12-12-|
E-------------------------------------------------|
(Guitar 2)

e-------------11^-------|
B-----------------12-10-|
G----12^-10-------------|
D-----------12----------|(play this as soon as guitar 1 hits the G)
A-----------------------|
E-----------------------|
Outro
(Guitar 1)

e-------------------|
B-------------------|
G----9--------------|
D----9---7---11---7-|x6
A----7---7---11---7-|
E--------5---9----5-|

Order: Intro
       Verse
       Pre-Chorus
       Chorus
       Intro
       Verse
       Pre-Chorus
       Chorus
       Bridgex2
       Outro

Comments about this tab

Texrab - 2005-05-21

Sorry there is a typo in the intro and verse but besides that its perfect.

instead of playing G-5-|
D-5-| and D-5-|
A-7-| A-5-|
E-7-|
PLAY G-9-|
D-9-| and D-9-|
A-7-| A-9-|
E-7-| Please rate my tab.


Texrab - 2005-05-21

Sorry there is a typo in the intro and verse but besides that its perfect.

instead of playing G-5-| D-5-|
D-5-| and A-5-|
A-7-| E-7-|

PLAY G-9-| D-9-|
D-9-| and A-9-|
A-7-| E-7-| Please rate my tab.


Mar-T - 2005-07-25

I play the intro like this:
EE (then mute all strings) EE Bsus
Repeat this then go into "She told him she'd......."
using the same pattern.
God Bless!


jkim519 - 2005-08-21

Yo nxt time can u write the chords with the fingering? thnx!


Cdude - 2006-03-27

Great tab!


Add a comment/correction

Complimentary Christian Ringtones
Dadamobile and CGR have teamed up to bring your favorite Christian artists right to your phone. Sign up today and get 10 complementary ringtones!
Tab Country
Did you know CGR has a sister site w/ country guitar tabs? Well we do! Its called Tab Country. It has a great archive with a lot of country tabs.
Rockin Tabs
Are you looking for a site that has rock guitar tabs? Then Rockintabs.com is the place for you. It is a budding site with many rock guitar tabs. Submit your tab today.
Tab Gallery
Tab Gallery has a compilation of christian, rock, and country tabs all in one place. Come visit us.