Guitar Tabs
song title    band name

Join Us Today!

Don't strum alone...
be a part of the largest online Christian music community. Browse thousands of guitar tabs and chat w/ musicians like yourself.


It's Free!

This tab has been rated a 1.00 out of 5 for accuracy. (1 vote)Sorry, but you must be logged in to rate this tab.
Click here to log-in, or you can click here to register.
(Registration is free)

All songs owned by corresponding publishing company. If you make copies of any song on this website, be sure to report your usage to CCLI.
Submitted by: guitarfreaker

 Copyright 2005 Tooth & Nail Records

This song is on the cd Never Take Friendship Personal (awesome cd)
 O.k people This song is very easy.
 I tabbed it in dropped C.CGCFAD
intro                                                     intro pt2
[------------------------------------------------------    [----------------
[--------------11--------------------------------------    [----------------
[--10h12-12-12----12-12-12--10h12-12-12-10---10-10-10--4x  [--12--12--12--12
[------------------------------------------12----------    [--12--12--12--12
[------------------------------------------------------    [--10--10--10--10
[------------------------------------------------------    [----------------


verse
[-----------------------------------------------------------------
[-----------------------------------------------------------------
[------12----12----12----12---10---10---10---10---8----8----8----8
[----12----12----12----12---10---10---10---10---8----8----8----8--
[--10----10----10----10----8----8----8----8----6----6----6----6---
[-----------------------------------------------------------------
                         Pre-chorus
[----------------------     [----------------------------
[----------------------     [----------------------------
[----10---10---10---10-2x   [--12-12-10s12---------------
[--10---10---10---10---     [--12-12-10s12---------------
[-8----8----8----8-----     [--10-10-8-s10---------------
[----------------------     [----------------------------
chorus
[--------------------------------------------------------
[--------------10--10--10--11--11--11--13--13--13--------
[--12--12--12----0---0---0---0---0---0---0---0---0-------2x 
[--------------------------------------------------------
[----10--10--10------------------------------------------
[--------------------------------------------------------
 
intro pt2
Verse
Chorus
Intro with delay

Bridge
[--------------------------------------------------
[--------------------------------------------------
[--------------------------------------------------
[-5-5-5-55--3-3-3-33--1-1-1-11--3-3-3-33-----------
[-5-5-5-55--3-3-3-33--1-1-1-11--3-3-3-33-----------
[-5-5-5-55--3-3-3-33--1-1-1-11--3-3-3-33-----------

Solo
[---------------------------------------------------------------
[---------------------------------------------------------------
[--12-10-8-7-8-7h8p7---7-----------------------------7-8-7-8-10-
[--------------------10-10-8-7----------7-8-10-7-8-10-----------
[-----------------------------8-10--8-10------------------------
[---------------------------------------------------------------

[---------------------------------------------------------------
[---------------------------------------------------------------
[-8h10p8-7h8p7--------------------------------------------------
[-------------8h10p8-8h10p8-10b-8h10p8----8h10p8-------7h8-10---
[--------------------------------------10-------10-8h10---------
[---------------------------------------------------------------

[--------------------10--10--10--10----10----10----10----10-----
[--------------------------------13b15-13b15-13b15-13b15-13b15--
[-7h8-7h8-8/10-10/12---12--12--12-------------------------------
[---------------------------------------------------------------
[---------------------------------------------------------------
[---------------------------------------------------------------

chorus 2x

intro
 
Tabbed by Michael Cox

That's all questions or disses send 'em to me at bjonyomomma@yahoo.com

Comments about this tab

guitarcordfreak - 2006-08-01

sorry but this is WAY off!


Add a comment/correction

Complimentary Christian Ringtones
Dadamobile and CGR have teamed up to bring your favorite Christian artists right to your phone. Sign up today and get 10 complementary ringtones!
Tab Country
Did you know CGR has a sister site w/ country guitar tabs? Well we do! Its called Tab Country. It has a great archive with a lot of country tabs.
Rockin Tabs
Are you looking for a site that has rock guitar tabs? Then Rockintabs.com is the place for you. It is a budding site with many rock guitar tabs. Submit your tab today.
Tab Gallery
Tab Gallery has a compilation of christian, rock, and country tabs all in one place. Come visit us.