Guitar Tabs
song title    band name

Join Us Today!

Don't strum alone...
be a part of the largest online Christian music community. Browse thousands of guitar tabs and chat w/ musicians like yourself.


It's Free!

This tab has been rated a 3.10 out of 5 for accuracy. (10 votes)Sorry, but you must be logged in to rate this tab.
Click here to log-in, or you can click here to register.
(Registration is free)

All songs owned by corresponding publishing company. If you make copies of any song on this website, be sure to report your usage to CCLI.
Submitted by: merchant

Intro:

e|----------------------------------------------------------|
B|----------------------------------------------------------|
G|----------------------------------------------------------|Repeat as
D|-----7-6-6-6h7-----7-6-6-6h7-----7-6-6-6h7-----7-6-6-6h7--|necessary
A|-----------------------------5-5-----------5-5------------|
E|-5-5-----------5-5----------------------------------------|

Solo:

e|--------------------------------------------|
B|-------10-------10----10-------10-12-13-10--|
G|-11-11----11-11----11----10-10--------------|
D|--------------------------------------------|
A|--------------------------------------------|
E|--------------------------------------------|

e|--------------------------------------------|
B|--------------------------------------------|
G|-----6-----6---------8-----8----------------|
D|-7-7---7-7---7-7-9-9---9-9---9-9------------|
A|--------------------------------------------|
E|--------------------------------------------|

e|--------------------------------------------|
B|-------10-------10----10-------10-12-13-10--|
G|-11-11----11-11----11----10-10--------------|
D|--------------------------------------------|
A|--------------------------------------------|
E|--------------------------------------------|

e|--------------------------------------------------------------|
B|--------------------------------------------------------------|
G|-----6-----6---------8-----8---------8-----8-----8---8---8----|
D|-7-7---7-7---7-7-9-9---9-9---9-9-9-9---9-9---9-9---9---9---9--|
A|--------------------------------------------------------------|
E|--------------------------------------------------------------|

Enjoy!!! \m/

Comments about this tab

guitarguy1020 - 2005-04-15

not bad


merchant - 2005-04-16

It's right, was down in Hillsong the other week and that's how it was played :)


Jenna Mee - 2005-05-20

that's correct. but you will find on the new album coming out in july that the solo for this song is different. after recording, it was realized that this is similar to a weezer riff, so the boyz changed it. we still play it this way for service, unless you're nigel. haha.


sixstringes777 - 2005-06-30

I think instead of going to

b--10-12-13-12-10-----

you should go

b--10-12-12b13r12-10-- b = bend r = return

either way works


sixstringes777 - 2005-06-30

I think instead of going to

b--10-12-13-12-10-----

you should go

b--10-12-12b13r12-10-- b = bend r = return

either way works


Mich0w - 2005-07-01

Yeh just make sure you slide from 12/13/12 and it sounds alright


cyril24 - 2005-07-09

umm the part in the solo where it bends actually goes:

e|----------------------------------------------|
B|-------10-------10----10-------10-12-12b12-10-|
G|-11-11----11-11----11----10-10----------------|
D|----------------------------------------------|
A|----------------------------------------------|
E|----------------------------------------------|

e|------------------------------------|
B|------------------------------------|
G|-----6-----6-----------8-----8---8\-|
D|-7-7---7-7---7-7---9-9---9-9---9----|
A|------------------------------------|
E|------------------------------------|

e|----------------------------------------------|
B|-------10-------10----10-------10-12-12b12-10-|
G|-11-11----11-11----11----10-10----------------|
D|----------------------------------------------|
A|----------------------------------------------|
E|----------------------------------------------|

e|-------------------------------------------------------------------------|
B|-------------------------------------------------------------------------|
G|-----6-----6-----------8-------8---8-----8-----8---8--88--88-*8^8--88@@--|
D|-7-7---7-7---7-7---9-9---9-9-9---9---9-9---9-9---9---99-9-9-@9-*999999---|
A|-------------------------------------------------------------------------|
E|-------------------------------------------------------------------------|


Burning - 2005-07-12

THE _NEW_ SOLO

b is for bend
r is for bend / release
~ is for vibrato

E||--------------------------|--------------------------|
B||----12b---12b---12r---10--|----------------11--12r---|
G||--------------------------|--11~-------11------------|
D||--------------------------|--------------------------|
A||--------------------------|--------------------------|
E||--------------------------|--------------------------|



----------------------------|-------------------------|
------14----17--17----12r---|--10--12----------9------|
--11------------------------|---------------9---------|
----------------------------|------------9------------|
----------------------------|-------------------------|
----------------------------|-------------------------|
^Harmonics here^


--------------------------------|
--14--14--17~-------17----------|
----------16~-----------18--17--|
--------------------------------|
--------------------------------|
--------------------------------|



--------------------------------------------------|----------------------------|
------17------------------------------------------|------------10--10--10--12--|
--16b-----18--17--16b-----------------------------|------------9---9---9---11--|
----------------------19--16--19--16b-------------|----------------------------|
--------------------------------------16--15--14--|--12~-------7---7---7---9---|
--------------------------------------------------|------------8---8---8---10--|



----------------------------|----------------------|------------21b-------||
--10--10--10--12--11--------|--14--------17--------|--22------------------||
--9---9---9---11------------|----------------------|----------------------||
----------------------------|----------------------|----------------------||
--7---7---7---9-------------|----------------------|----------------------||
--8---8---8---10------------|----------------------|----------------------||
^------------Tremolo Picking------------^



I know it's (very) wrong in quite a few places, but it should give you a start on learning it.


Burning - 2005-07-12

um where it says tremolo picking and harmonics move those to the ends of the lines (formatting error sorry)


guitar_man369 - 2005-07-20

the sheet music for the tab intro is

e--------------------------------------------------------------------
B--------------------------------------------------------------------
G--------------------------------------------------------------------
D--------------------------------------------------------------------
A-0-0-12-11-11-12-0-0-12-11-11-12-------12-11-11-12------12-11-11-12-
E----------------------------------10-10------------10-10------------


elykoko - 2005-07-21

ive posted the new solo.. but i dunno when theyre gonna put it up..

ill show u guyz JUST THE FIRST PART... then just look at the tab i posted....
its complete...

e|-12----12---------------------------12-12----12---------------|
B|-12^^^-12^-10----------10-12-12^-10-12^^^^12^^^^12^^12-10-12~~|
G|--------------11~~~9h11---------------------------------------|
D|--------------------------------------------------------------|
A|--------------------------------------------------------------|
E|--------------------------------------------------------------|


elykoko - 2005-07-21

^ - bend
^^^ - full bend (continued '^' means hold it or pick while bending)
(H) - harmonics
(T) - Tremolo picking
H - Hammer on
P - pull off
~~~ - vibrato


ttownguitarist - 2006-06-30

Cyril has it perfect. Good job!


big-country - 2006-09-04

i think the solo is too high up, i think you have t play it more around the 7th fret area. it sounds better up there


6strings21frets - 2006-12-27

Yeah, the solo is right, but there is also a bass solo after the guitar:

A|9-9-9-9-11-8-8-8-8-0-0-0-0-2-2-2-2-2-2-2-2-8h9-9-9-9-9

Then head into the chorus


digitech250 - 2008-11-02

the solo should be

e--------------------------------------------------------------------
b---------12------12---12-------10-12-12b----------------------------
g---11-11----11-11---11---10-10--------------------------------------

otherwise the rest of the solo is amazing


Add a comment/correction

Complimentary Christian Ringtones
Dadamobile and CGR have teamed up to bring your favorite Christian artists right to your phone. Sign up today and get 10 complementary ringtones!
Tab Country
Did you know CGR has a sister site w/ country guitar tabs? Well we do! Its called Tab Country. It has a great archive with a lot of country tabs.
Rockin Tabs
Are you looking for a site that has rock guitar tabs? Then Rockintabs.com is the place for you. It is a budding site with many rock guitar tabs. Submit your tab today.
Tab Gallery
Tab Gallery has a compilation of christian, rock, and country tabs all in one place. Come visit us.