Guitar Tabs
song title    band name

Join Us Today!

Don't strum alone...
be a part of the largest online Christian music community. Browse thousands of guitar tabs and chat w/ musicians like yourself.


It's Free!

This tab has been rated a 5.00 out of 5 for accuracy. (2 votes)Sorry, but you must be logged in to rate this tab.
Click here to log-in, or you can click here to register.
(Registration is free)

All songs owned by corresponding publishing company. If you make copies of any song on this website, be sure to report your usage to CCLI.
Submitted by: acrossthesirion

Butterflies
Olivia the Band
Standard tuning
Tabbed by acrossthesirion

This is a great song by a great band that almost nobody knows about.  Some of the lead stuff my not be right so post a correction if you think it is played different.

* palm mute
X deaden
/ slide
h hammer
p pull
~ let ring
< pick slide

Verse 1(lead guitar)
X4
E--------------------------------------
B-7777-7-10-8-7h8p7--------------------
G-7777-7-7--7------7-4444-4-7-5-4h5p4--
D--------------------5555-5-5-5------5-
A--------------------------------------
E--------------------------------------
  ****               ****

Verse 1 (rhythm guitar)
X2
E-------------------------------------------------------------------------
B-------------------------------------------------------------------------
G-7777-7--7-7-777-7-------------------7777-7--7-7-777-7-------------------
D-7777-7--7-7-777-7-5555-5--5-5-555-5-7777-7--7-7-777-7-5555-5--5-5-555-5-
A-5555-5--5-5-555-5-5555-5--5-5-555-5-5555-5--5-5-555-5-5555-5--5-5-555-5-
E-------------------3333-3--3-3-333-3-------------------3333-3--3-3-333-3-
  ****        ***   ****        ***   ****        ***   ****        ***

Pre chorus (lead)
X1
E-------------------------------------------
B-------------------------------------------
G-------------------------------------------
D-----5-4---7-5-4----------5-4---7-5-4------
A---------5-------5-7~---------5-------5-7~-
E-0~-------------------0~-------------------

Pre chorus (rhythm)
X1
E---------------------------------
B---------------------------------
G---------------------------------
D-2~------5~------2~------5~--7~--
A-2~------5~------2~------5~--7~--
E-0~------3~------0~------3~--5~--

Chorus part 1 (both guitars)
X2
E----------------------------------------------------------------
B----------------------------------------------------------------
G-77-X7---------------------------------------------------7~-----
D-77-X7---55-X5---99-X9---77-X7---55-X5---44-X4---55-X5---7~--7~-
A-55-X5---55-X5---99-X9---77-X7---55-X5---44-X4---55-X5---5~--7~-
E---------33-X3---77-X7---55-X5---33-X3---22-X2---33-X3-------5~-

End chorus with
E------------------
B------------------
G-7~---------------
D-7~---------------
A-5~---------------
E---------<<<<<<<<-



Verse 2 (lead)
X2
E---------------------------------------------------------------------------------
B-77-8-77-8-77-8-77-8-77-8-77-8-77-8-77-8-----------------------------------------
G-77-7-77-7-77-7-77-7-77-7-77-7-77-7-77-7-44-5-44-5-44-5-44-5-44-5-44-5-44-5-44-5-
D-77-7-77-7-77-7-77-7-77-7-77-7-77-7-77-7-55-5-55-5-55-5-55-5-55-5-55-5-55-5-55-5-
A---------------------------------------------------------------------------------
E---------------------------------------------------------------------------------
  **   **   **   **
Verse 2 (rhythm)
X2
E---------------------------------------------------------------------------------
B---------------------------------------------------------------------------------
G-77-7-77-7-77-7-77-7-77-7-77-7-77-7-77-7-----------------------------------------
D-77-7-77-7-77-7-77-7-77-7-77-7-77-7-77-7-55-5-55-5-55-5-55-5-55-5-55-5-55-5-55-5-
A-55-5-55-5-55-5-55-5-55-5-55-5-55-5-55-5-55-5-55-5-55-5-55-5-55-5-55-5-55-5-55-5-
E-----------------------------------------33-3-33-3-33-3-33-3-33-3-33-3-33-3-33-3-
  **   **   **   **   **   **   **   **   **   **   **   **   **   **   **   **

Play pre chorus X1

Play chorus part 1 X2

Chorus 2 part 2 (lead)
X4
E----------------------------------
B----------------------------------
G----------------------------------
D---5-4-7~--5-4-7~--5-4-7~--5-4-7~-
A----------------------------------
E----------------------------------

Chorus 2 part 2 (rhythm)
X2
E----------------------------------------------------------------
B----------------------------------------------------------------
G-77-X7---------------------------------------------------7~-----
D-77-X7---55-X5---99-X9---77-X7---55-X5---44-X4---55-X5---7~--7~-
A-55-X5---55-X5---99-X9---77-X7---55-X5---44-X4---55-X5---5~--7~-
E---------33-X3---77-X7---55-X5---33-X3---22-X2---33-X3-------5~-

Bridge part 1 (lead)
X6
E------------------------------
B------------------------------
G------------------------------
D----5-7----7-9----5-7---5-4-7-
A-55-----55-----55-----5-------
E------------------------------
  **     **     **     *

Bridge part 1 (rhythm)
X4 (come in after lead plays whatís above 2x)
E----------------------------------
B-7---7---7---7---7---7---7---8-10-
G---7---7---7---7---7---7---7------
D----------------------------------
A----------------------------------
E----------------------------------
  * * * * * * * * * * * * * * * * (last 2 times donít palm mute)

Bridge part 2 (both guitars)
X1
E----------------------------------
B----------------------------------
G-7~-----------7777~-----------7-7-
D-7~-----------7777~-----------7-7-
A-5~-----------5555~-----------5-5-
E----------------------------------




Bridge part 3 (both guitars)
X1
E--------------------------------------------------------------------------------
B--------------------------------------------------------------------------------
G-77-7/77-7/77-7/77-7/7-7/7/7/7/7/7/7/77-7/77-7/77-7/77-7/7-7-7/77-7/77-7/77-7/7-
D-77-7/77-7/77-7/77-7/7-7/7/7/7/7/7/7/77-7/77-7/77-7/77-7/7-7-7/77-7/77-7/77-7/7-
A-55-4/55-4/55-4/55-4/5-4/5/4/5/4/5/4/55-4/55-4/55-4/55-4/5-5-4/55-4/55-4/55-4/5-
E--------------------------------------------------------------------------------

Bridge part 3 count. (both guitars)
X1
E------------------------------------------
B------------------------------------------
G-7/77-7/77-7/77-7/77-7/7777-9999-11111111-
D-7/77-7/77-7/77-7/77-7/7777-9999-11111111-
A-4/55-4/55-4/55-4/55-4/5555-7777-9-9-9-9--
E------------------------------------------

Final Chorus part 1 (both guitars)
X1
E----------------------------------------------------------------
B----------------------------------------------------------------
G-7-------------------------------------------------------7~-----
D-7-------5-------9-------77-X7---55-X5---44-X4---55-X5---7~--7~-
A-5-------5-------9-------77-X7---55-X5---44-X4---55-X5---5~--7~-
E---------3-------7-------55-X5---33-X3---22-X2---33-X3-------5~-

Final chorus part 1 count. (both guitars)
X1
E----------------------------------------------------------------
B----------------------------------------------------------------
G-77-X7---------------------------------------------------7~-----
D-77-X7---55-X5---99-X9---77-X7---55-X5---44-X4---55-X5---7~--7~-
A-55-X5---55-X5---99-X9---77-X7---55-X5---44-X4---55-X5---5~--7~-
E---------33-X3---77-X7---55-X5---33-X3---22-X2---33-X3-------5~-

Final chorus part 2 (lead)
X4
E----------------------------------
B----------------------------------
G----------------------------------
D---5-4-7~--5-4-7~--5-4-7~--5-4-7~-
A----------------------------------
E----------------------------------

Final chorus part 2 (rhythm)
X2
E----------------------------------------------------------------
B----------------------------------------------------------------
G-77-X7---------------------------------------------------7~-----
D-77-X7---55-X5---99-X9---77-X7---55-X5---44-X4---55-X5---7~--7~-
A-55-X5---55-X5---99-X9---77-X7---55-X5---44-X4---55-X5---5~--7~-
E---------33-X3---77-X7---55-X5---33-X3---22-X2---33-X3-------5~-

End (lead)
X1
E------------------------------------
B------------------------------------
G---------------------------------7~-
D-4-5-4-5-4-5-4-5-4-5-4-5-4-5-4-5-7~-
A---------------------------------5~-
E------------------------------------

End (rhythm)
X1
E------------------------------------
B------------------------------------
G---------------------------------7~-
D-7-7-7-7-7-7-7-7-7-7-7-7-7-7-7-7-7~-
A-4-5-4-5-4-5-4-5-4-5-4-5-4-5-4-5-5~-
E------------------------------------

Comments about this tab

acrossthesirion - 2005-05-30

Why doesn't anyone ever rate this tab?


relient-K-freak - 2005-06-18

could you plz tab stars and stripes also? its obviously the best song by this band.......


acrossthesirion - 2005-06-19

I tabbed it for you today, it should be up pretty soon


pillarfan23 - 2006-04-09

Could you tab Heaven, me and my some friends at church want to play it for the youth group....


4of5Rocker - 2006-05-26

I would love it if sum1 would tab missing


Add a comment/correction

Complimentary Christian Ringtones
Dadamobile and CGR have teamed up to bring your favorite Christian artists right to your phone. Sign up today and get 10 complementary ringtones!
Tab Country
Did you know CGR has a sister site w/ country guitar tabs? Well we do! Its called Tab Country. It has a great archive with a lot of country tabs.
Rockin Tabs
Are you looking for a site that has rock guitar tabs? Then Rockintabs.com is the place for you. It is a budding site with many rock guitar tabs. Submit your tab today.
Tab Gallery
Tab Gallery has a compilation of christian, rock, and country tabs all in one place. Come visit us.