Guitar Tabs
song title    band name

Join Us Today!

Don't strum alone...
be a part of the largest online Christian music community. Browse thousands of guitar tabs and chat w/ musicians like yourself.


It's Free!

This tab has been rated a 4.25 out of 5 for accuracy. (4 votes)Sorry, but you must be logged in to rate this tab.
Click here to log-in, or you can click here to register.
(Registration is free)

All songs owned by corresponding publishing company. If you make copies of any song on this website, be sure to report your usage to CCLI.
Submitted by: jamforchrist123

On Our Side
Cris Tomlin
I Don't Know The Copyright Info. I Don't Have 
The CD. I Figured It Out At Church.

Capo 1

Solo Tab

b=bend t=tremolo s=slide

E-----------------------------------55-3--3-s-5--------------------------
B----------8-----------------------------5------7-7-5-7------------------
G----5-7-8b--9t-7-5-7-5-------------------------7-7-5-7-------------5----
D--7-------------------7-5-7-5-7------------------------77-5-7--5-7---7t-
A------------------------------------------------------------------------
E------------------------------------------------------------------------


E---------------------------------------------------------------------
B--8-8-8-8-8-8-8-8-10-10-10-10-10-10-10-10-13-13-13-13-13-13-13-13-13-
G--9-9-9-9-9-9-9-9-11-11-11-11-11-11-11-11-14-14-14-14-14-14-14-12-14-
D---------------------------------------------------------------------
A---------------------------------------------------------------------
E---------------------------------------------------------------------


E-----------17----17----17----17----17--------------
B--16-s-17-----17----17----17--- 17----17-8-6-5-----
G-----------------------------------------------7-6-
D---------------------------------------------------
A---------------------------------------------------
E---------------------------------------------------


This May Not Be Right, But I Had To PLay It For Church And I Had
Like One Day Too Figure It Out.  Also, Please Give This A Rating
And Maybe A Comment Because I'm Still Kinda New At Tabbing.

Comments about this tab

jamforchrist123 - 2005-09-06

In The Nicest Way Possible, Please Comment!


JESUSFReaK301 - 2005-09-26

In the meanest way possible, I'm gonna say this. Beautiful Job to TAB this solo out, and only be starting at tabbing. Can also put down the Chords for the rest of this song.
Greeeat job. God bless, keep on going


jamforchrist123 - 2005-10-14

What Do You Mean "In The Meanest Way Possible" If You Said Great Job. (Not To Sound Rude)


jesus_lives4u - 2005-11-01

hey brother dont worry he was just being sarcastic haha. you did a great job at the tab. couldnt ask for a better job man. do you think you could tab out the rest of the song too? im actually a bass player and cant tab out guitar parts yet, just bass. well good job God bless and peace out.


jamforchrist123 - 2005-11-27

I dont' actuly have the song, I just learned it at church (after an hour of of hard tabbing, haha) and that intro was hard. I never got the intro.


TheTimeHasCome - 2006-10-18

Hey duuuuuuudes, here's the intro:

D 6 5 3 3/5 [5 5 5 5 5 5 5]
A
E 6

He's use some kinda wah on it too, but not a lot of it...lol, you know what I mean :) Keep praisin' God guys, we're blessed to have Tomlin "On Our Side" to write these wicked songs haha...wow that was a bad pun. See ya guys.

Fraser.


TheTimeHasCome - 2006-10-18

D 6 5 3 3/5 [5 5 5 5 5 5 5]
A
E 6

Sorry, there was supposed to be a space after that first 6 lol. This is the correct version.


TheTimeHasCome - 2006-10-18

Apparently it's not letting me lol, just know that the 6 on the D is played after the 6 on the E :) That should straighten things out.


aggregateMUSIC - 2007-04-17

On the intro, I think the beginning guitar is like this. Going by ear from the recording here, but I hear more than one note being struck at a time. A string is struck open (Capo 1)

G X - X - 5 - 3 - 3 - - 3 - 3 - 3 - 3 - 3
D X - X - 6 - 5 - 3 - - 5 - 5 - 5 - 5 - 5
A 1 - 1 -
E X


Add a comment/correction

Complimentary Christian Ringtones
Dadamobile and CGR have teamed up to bring your favorite Christian artists right to your phone. Sign up today and get 10 complementary ringtones!
Tab Country
Did you know CGR has a sister site w/ country guitar tabs? Well we do! Its called Tab Country. It has a great archive with a lot of country tabs.
Rockin Tabs
Are you looking for a site that has rock guitar tabs? Then Rockintabs.com is the place for you. It is a budding site with many rock guitar tabs. Submit your tab today.
Tab Gallery
Tab Gallery has a compilation of christian, rock, and country tabs all in one place. Come visit us.