Guitar Tabs
song title    band name

Join Us Today!

Don't strum alone...
be a part of the largest online Christian music community. Browse thousands of guitar tabs and chat w/ musicians like yourself.


It's Free!

This tab has not yet been rated for accuracy.Sorry, but you must be logged in to rate this tab.
Click here to log-in, or you can click here to register.
(Registration is free)

All songs owned by corresponding publishing company. If you make copies of any song on this website, be sure to report your usage to CCLI.
Submitted by: C.RiceWannabe

CD: Run the Earth, Watch the Sky
Author: Chris Rice
Artist: Chris Rice
This tab is for the acoustic guitar in "Other Side of the Radio".
Capo the second fret for this song.




[Intro]
E|-----------------------------------------------------
B|-----------------------------------------------------
G|-----------------------------------------------------
D|--0-0-2-0-2--0-0-2-0-2-------------------------------   Play 3 times
A|--3-3-3-3-3--3-3-3-3-3--0-0-2-0-2--0-0-2-0-2---------
E|------------------------3-3-3-3-3--3-3-3-3-3---------


[Verse]
E|-----------------------------------------------------
B|-----------------------------------------------------
G|-----------------------------------------------------
D|--0-0-2-0-2--0-0-2-0-2-------------------------------   Play twice
A|--3-3-3-3-3--3-3-3-3-3--0-0-2-0-2--0-0-2-0-2---------
E|------------------------3-3-3-3-3--3-3-3-3-3---------

E|------------------------
B|------------------------ 
G|------------------------
D|--0-0-2-0-2--0-0-2-0-2--
A|--3-3-3-3-3--3-3-3-3-3--
E|------------------------


Em
C (Strum once)
D
C


E|-----------------------------------------------------
B|-----------------------------------------------------
G|-----------------------------------------------------
D|--0-0-2-0-2--0-0-2-0-2-------------------------------   Play twice
A|--3-3-3-3-3--3-3-3-3-3--0-0-2-0-2--0-0-2-0-2---------
E|------------------------3-3-3-3-3--3-3-3-3-3---------

E|------------------------
B|------------------------ 
G|------------------------
D|--0-0-2-0-2--0-0-2-0-2--
A|--3-3-3-3-3--3-3-3-3-3--
E|------------------------


Em
C (Strum once)
D
C
D

Em
Bm
Cadd9
D


[Chorus]
G
D
Em
C

G
D
A

(repeat)
C
G (Strum once)


[Verse 2]
E|-----------------------------------------------------
B|-----------------------------------------------------
G|-----------------------------------------------------
D|--0-0-2-0-2--0-0-2-0-2-------------------------------   Play twice
A|--3-3-3-3-3--3-3-3-3-3--0-0-2-0-2--0-0-2-0-2---------
E|------------------------3-3-3-3-3--3-3-3-3-3---------

E|------------------------
B|------------------------ 
G|------------------------
D|--0-0-2-0-2--0-0-2-0-2--
A|--3-3-3-3-3--3-3-3-3-3--
E|------------------------


Em
C (Strum once)
D
C
D

Em
Bm
Cadd9
D


[Chorus 2]
G
D
Em
C

G
D
A

(repeat)
C


[Bridge]
G (Strum once)
D (Strum once)
Em (Strum once)
C (Strum once)

[Chorus 2]

[Chorus 3]
G
D
Em
C

G
D
Em
C

(repeat)
G (Strum Once)


(This is played during the Elec. Guitar Solo, it's not required, but fits.)

E|-----------------------------------------------------
B|-----------------------------------------------------
G|-----------------------------------------------------
D|--0-0-2-0-2--0-0-2-0-2-------------------------------   Play 2 times
A|--3-3-3-3-3--3-3-3-3-3--0-0-2-0-2--0-0-2-0-2---------
E|------------------------3-3-3-3-3--3-3-3-3-3---------

After that you play

C
G
C
G

--==-- Chord Dictionary --==--
    G:   C:   D:   Em:   Bm:   Cadd9:
E   3    x    2    0      2      3
B   3    1    3    0      3      3
G   0    0    2    0      4      0
D   0    2    0    2      4      2
A   2    3    0    2      2      3
E   3    x    x    0      2      x


That's all folks! Hope you enjoyed it :)

Comments about this tab

C.RiceWannabe - 2005-04-21

Oops, I messed up this part, it should be
-----------------------------------------
Until it comes to the Elec. Guitar solo.
After that you play

C
G
C
G


C.RiceWannabe - 2005-04-24

Another correction, this time for the Bm chord.
It should be:

E| 2
B| 3
G| 4
D| 4
A| 2
E| 2


Add a comment/correction

Complimentary Christian Ringtones
Dadamobile and CGR have teamed up to bring your favorite Christian artists right to your phone. Sign up today and get 10 complementary ringtones!
Tab Country
Did you know CGR has a sister site w/ country guitar tabs? Well we do! Its called Tab Country. It has a great archive with a lot of country tabs.
Rockin Tabs
Are you looking for a site that has rock guitar tabs? Then Rockintabs.com is the place for you. It is a budding site with many rock guitar tabs. Submit your tab today.
Tab Gallery
Tab Gallery has a compilation of christian, rock, and country tabs all in one place. Come visit us.