Guitar Tabs
song title    band name

Join Us Today!

Don't strum alone...
be a part of the largest online Christian music community. Browse thousands of guitar tabs and chat w/ musicians like yourself.


It's Free!

This tab has been rated a 4.00 out of 5 for accuracy. (1 vote)Sorry, but you must be logged in to rate this tab.
Click here to log-in, or you can click here to register.
(Registration is free)

All songs owned by corresponding publishing company. If you make copies of any song on this website, be sure to report your usage to CCLI.
Submitted by: vote4pedro

Band: Subseven
Song: Dirt Roads
Album: Free To Conquer

When i saw these guys in concert they played this song and i was watching the 
jake and caleb play it (vertully the whole time). So some of this tab is based on 
that and sum stuff i came up with on my own (by hear).

Tuning - Drop D

bend - ^

pm - palm muted

/ - slide up

\ - slide down

Intro: (0:01 - 0:43)
Guitar 1
e |------------------------------------
b |---10-10\9-9-(4x)--9-9/10-10-(4X)---
g |---10-10\9-9-------8-8/9--9---------(8X)
d |------------------------------------

Guitar 2 
g |--------3~-------3~------------------3-----------------------------3--------
d |---0~---3~---0~--3~---0--------------3--------------0--------------3--------
a |---0~---1~---0~--1~---0-(8x)---------1-(8x)---------0-(8x)---------1-(8x)---
d |---0~--------0~-------0------3-2-0----------3-2-0---0------3-2-0------------



Verse 1: (0:45 - 1:07)
Guitar 1+2
              pm-----------|           pm-------------|
g |---------3------------------------------------------
d |---------3-3-3-3-3-3-3-3--------2^------------------(4x)
a |---------1-1-1-1-1-1-1-1------------0-0-0-0-0-0-0-0-
d |---3-2-0------------------3-2-0-----0-0-0-0-0-0-0-0-


Pre-Chorus 1: (1:08 - 1:19)
Guitar 1
e |------------------------------------------------------------
b |------------------------------------------------------------(2x)
g |------------------------------------------------------------
d |---------14-15~--------14-15~--------14-15~--------14-15~---

Guitar 2
g |-----------------------------------------------------------
d |---8-8-8---------8-8-8---------0-0-0---------0-0-0---------(2x)
a |---8-8-8---------8-8-8---------0-0-0---------0-0-0---------
d |---8-8-8---------8-8-8---------0-0-0---------0-0-0---------

(1:19 - 1:29)
Guitar 1
e |------------------------------------------------------------
b |---------14-15~--------14-15~--------14-15~--------14-15~---(2x)
g |------------------------------------------------------------
d |---8-8-8---------8-8-8--------------------------------------
a |---8-8-8---------8-8-8--------------------------------------
d |---8-8-8---------8-8-8--------------------------------------
                                       
Guitar 2                               
e |------------------------------------------------------------
b |--------------------------------------9-10~---------9-10~---
g |------------------------------------------------------------
d |-------------------------------0-0-0---------0-0-0----------(2x)
a |-------------------------------0-0-0---------0-0-0----------
d |-------------------------------0-0-0---------0-0-0----------


Verse 2: (1:30 - 1:42)
              pm-----------|           pm-------------|
g |---------3------------------------------------------
d |---------3-3-3-3-3-3-3-3--------2^------------------(4x)
a |---------1-1-1-1-1-1-1-1------------0-0-0-0-0-0-0-0-
d |---3-2-0------------------3-2-0-----0-0-0-0-0-0-0-0-

Guitar 1 (1:42 - 1:53)
e |---------------
b |---9-9/10-10---(8x)
g |---8-8/9--9----

Guitar 2
g |---3-3-3-3-----------------------------
d |---3-3-3-3-----------0-0-0-0-----------
a |---1-1-1-1-----------0-0-0-0-----------(2x)
d |-------------3-2-0---0-0-0-0---3-2-0---


Pre-Chorus 2: (1:54 - 2:14)
Guitar 1
e |------------------------------------------------------------
b |---------14-15~--------14-15~--------14-15~--------14-15~---(2x)
g |------------------------------------------------------------

Guitar 2
g |-----------------------------------------------------------
d |---8-8-8---------8-8-8---------0-0-0---------0-0-0---------(2x)
a |---8-8-8---------8-8-8---------0-0-0---------0-0-0---------
d |---8-8-8---------8-8-8---------0-0-0---------0-0-0---------

(1:19 - 1:29)
Guitar 1
e |------------------------------------------------------------
b |---------14-15~--------14-15~--------14-15~--------14-15~---(2x)
g |------------------------------------------------------------
d |---8-8-8---------8-8-8--------------------------------------
a |---8-8-8---------8-8-8--------------------------------------
d |---8-8-8---------8-8-8--------------------------------------
                                       
Guitar 2                               
e |------------------------------------------------------------
b |--------------------------------------9-10~---------9-10~---
g |------------------------------------------------------------
d |-------------------------------0-0-0---------0-0-0----------(2x)
a |-------------------------------0-0-0---------0-0-0----------
d |-------------------------------0-0-0---------0-0-0----------

(2:14 - 2:15)
Guitar 1
  pm-------------|
d |---0-0-0-0-0-0---
a |---0-0-0-0-0-0---
d |---0-0-0-0-0-0---


Chorus: (2:16 - 2:35)
Guitar 1+2
pm---------------------------------------|(just a slight pm)
d |---3-3-3-3--3-3-3-3---0-0-0-0--0-0-0-0---
a |---3-3-3-3--3-3-3-3---0-0-0-0--0-0-0-0---(4x)
d |---3-3-3-3--3-3-3-3---0-0-0-0--0-0-0-0---
4x end here-----------|


Bridge: (2:36 - 2:55)
Guitar 1
e |------------------------------------
b |---10-10\9-9-(4x)--9-9/10-10-(4X)---
g |---10-10\9-9-------8-8/9--9---------(4X)
d |------------------------------------


Outro: (2:58 - 3:07)
Guitar 1
e |------------------------------------------------------------
b |---------14-15~--------14-15~--------14-15~--------14-15~---(2x)
g |------------------------------------------------------------

Guitar 2
g |-----------------------------------------------------------
d |---8-8-8---------8-8-8---------0-0-0---------0-0-0---------(2x)
a |---8-8-8---------8-8-8---------0-0-0---------0-0-0---------
d |---8-8-8---------8-8-8---------0-0-0---------0-0-0---------

There u go DIRT ROADS!!! plz rate, leave a comment, or correction!!! or e-mail 
me at DareYouToMove@verizon.net

Tim~

P.S. when u guys tab music use head phones!!! (u can hear so much more)

Comments about this tab

rj51fan - 2005-04-12

i think the intro sounds better as
g)-------9-10-10-10
d)------10-12-12-12
a)
d)
and u just repeat that.i think it sounds a little better so give it a shot and c how u like it. just a suggestion.

baseball_punk


Add a comment/correction

Complimentary Christian Ringtones
Dadamobile and CGR have teamed up to bring your favorite Christian artists right to your phone. Sign up today and get 10 complementary ringtones!
Tab Country
Did you know CGR has a sister site w/ country guitar tabs? Well we do! Its called Tab Country. It has a great archive with a lot of country tabs.
Rockin Tabs
Are you looking for a site that has rock guitar tabs? Then Rockintabs.com is the place for you. It is a budding site with many rock guitar tabs. Submit your tab today.
Tab Gallery
Tab Gallery has a compilation of christian, rock, and country tabs all in one place. Come visit us.