Guitar Tabs
song title    band name

Join Us Today!

Don't strum alone...
be a part of the largest online Christian music community. Browse thousands of guitar tabs and chat w/ musicians like yourself.


It's Free!

This tab has not yet been rated for accuracy.Sorry, but you must be logged in to rate this tab.
Click here to log-in, or you can click here to register.
(Registration is free)

All songs owned by corresponding publishing company. If you make copies of any song on this website, be sure to report your usage to CCLI.
Submitted by: jms122589

Title psalm 41
Artist:apologetix
cd:adam up
Intro  (00:00)
e|-------------------------------------------------------|
B|-------------------------------------------------------|
G|-------------------------------------------------------|
D|---------6---------4---------6------------4-/-2--------| x 2
A|-------------------------------------------------------|
E|--4-5-7-----4-5-7-----4-5-7------4-5-7-----------------|

Intro 2 (00:10)
e|-------------------------------------------------------|
B|-------------------------------------------------------|
G|-------------------------------------------------------|
D|--022--6--022--4--022--6--022--4-/-2-------------------| x 2 
A|--022-----022-----022-----022--------------------------|
E|--000-----000-----000-----000--------------------------|

Verse 1 (00:20) "Storming through the party like......"
e|-------------------------------------------------------|
B|-------------------------------------------------------|
G|-------------------------------------------------------|
D|--22----2-1-2---22---00----2-1-2-----------------------| x 1
A|--22------------22---00---------------2-0--------------|
E|--00------------00---00---------------------4-2--------|

e|-------------------------------------------------------|
B|-------------------------------------------------------|
G|-------------------------------------------------------|
D|--22----4-6-4----22---00----2-1-2----------------------| x 1
A|--22-------------22---00--------------2-0--------------|
E|--00-------------00---00--------------------4-2--------|

Verse 2 (00:29) "Well I know im not the one you........."
e|-------------------------------------------------------|
B|-------------------------------------------------------|
G|-------------------------------------------------------|
D|--xx-2-xx-2-xx-2-xx-2---xx-9-xx-9---xx-7-xx-7----------| x 2
A|--xx-2-xx-2-xx-2-xx-2---xx-9-xx-9---xx-7-xx-7----------|
E|--xx-0-xx-0-xx-0-xx-0---xx-7-xx-7---xx-5-xx-5----------|

Pre chorus (00:37) 
e|-------------------------------------------------------|
B|-------------------------------------------------------|
G|-------------------------------------------------------|
D|--7-7-7-7-7-7-7-7-------ps/----------------------------| x 1
A|--7-7-7-7-7-7-7-7--------------------------------------|
E|--5-5-5-5-5-5-5-5--------------------------------------|

Chorus (00:39) "Waste my time, become another..........." 
e|-------------------------------------------------------|
B|-------------------------------------------------------|
G|--6-7-6---6-6-6-6-6-6----------------------------------|
D|--6-7-6---6-6-6-6-6-6---6--xx--7---6--xx--7------------| x 2
A|--4-5-4---4-4-4-4-4-4---6--xx--7---6--xx--7------------|
E|------------------------4--xx--5---4--xx--5------------|

After Chorus 1 (00:49)
e|-----|-------------------------------------------------|
B|-----|-------------------------------------------------|
G|-----|-------------------------------------------------|
D|--2--|-022--6--022--4--022--6--022--4-/-2--------------| x 2 
A|--2--|-022-----022-----022-----022---------------------|
E|-----|-000-----000-----000-----000---------------------|

Verse 1 (01:02) "Be Cause you don't^Notice it all......."
e|-------------------------------------------------------|
B|-------------------------------------------------------|
G|-------------------------------------------------------|
D|--22----2-1-2---22---00----2-1-2-----------------------| x 1
A|--22------------22---00--------------2-0---------------|
E|--00------------00---00---------------------4-2--------|

e|-------------------------------------------------------|
B|-------------------------------------------------------|
G|-------------------------------------------------------|
D|--22----4-6-4----22---00----2-1-2----------------------| x 1
A|--22-------------22---00-------------2-0---------------|
E|--00-------------00---00--------------------4-2--------|

Verse 2 (01:11) "Well we like having fun at other......."
e|-------------------------------------------------------|
B|-------------------------------------------------------|
G|-------------------------------------------------------|
D|--xx-2-xx-2-xx-2-xx-2---xx-9-xx-9---xx-7-xx-7----------| x 2
A|--xx-2-xx-2-xx-2-xx-2---xx-9-xx-9---xx-7-xx-7----------|
E|--xx-0-xx-0-xx-0-xx-0---xx-7-xx-7---xx-5-xx-5----------|

Pre chorus (01:19)
e|-------------------------------------------------------|
B|-------------------------------------------------------|
G|-------------------------------------------------------|
D|--7-7-7-7-7-7-7-7-------ps/----------------------------| x 1
A|--7-7-7-7-7-7-7-7--------------------------------------|
E|--5-5-5-5-5-5-5-5--------------------------------------|

Chorus (01:21) "Waste My time, become another..........."
e|-------------------------------------------------------|
B|-------------------------------------------------------|
G|--6-7-6---6-6-6-6-6-6----------------------------------|
D|--6-7-6---6-6-6-6-6-6---6--xx--7---6--xx--7------------| x 2
A|--4-5-4---4-4-4-4-4-4---6--xx--7---6--xx--7------------|
E|------------------------4--xx--5---4--xx--5------------|

After Chorus 2 (01:30) 
e|-------------------------------------------------------|
B|-------------------------------------------------------|
G|--------------------------2----------------------------|
D|--22-2222--2----22-2222---2---22-2222--2---22-2222-----| x 1
A|--22-2222--2----22-2222---0---22-2222--2---22-2222-----|
E|--00-0000--0----00-0000-------00-0000--0---00-0000-----|

Solo (01:40) "Don't Count on me to let you know when...."
e|-------------------------------------------------------|
B|-------------------------------------------------------|
G|------9----------9-----------6----~--------------------|
D|----9---9------9---9-------6---6--~------2-------------| x 2
A|--7----------6-----------4--------~---0-----0----------|
E|-------------------------------------------------------|

Solo Cont. (01:50) "Don't count on me!,thats the point.."
e|-------------------------------------------------------|
B|-------------------------------------------------------|
G|--9---9---11---11----9---9-------9---------------------|
D|----9---9----9----9----9---9--11---11--9---------------| x 2
A|-------------------------------------------------------|
E|-------------------------------------------------------|

Bridge (02:00) "Well I'm a no goodnick lower middle....."
e|----------------------------------~~~~-----------------|
B|----------------------------------~~~~-----------------|
G|--------------2----------------2--~~~~--------------2--|
D|--02--2--022--2----02--2--022--2--~~~~--02--2--022--2--| x 1
A|--02--2--022--0----02--2--022--0--~~~~--02--2--022--0--|
E|--00--0--000-------00--0--000-----~~~~--00--0--000-----|

Bridge cont. 
e|-------------------------------------------------------|
B|-------------------------------------------------------|
G|--------------------------2--------------2-------------|
D|--02--2----02-~-02-~-022--2--02--2--022--2-------------| x 1
A|--02--2----02-~-02-~-022--0--02--2--022--0-------------|
E|--00--0----00-~-00-~-000-----00--0--000----------------|

Bridge Outro (02:22)
e|-------------------------------------------------------|
B|-------------------------------------------------------|
G|--2-2-2-2-2-2-2-2-2-2-2-2-2-2-2-2-2-2-2-2-2-2-2--------|
D|--2-2-2-2-2-2-2-2-2-2-2-2-2-2-2-2-2-2-2-2-2-2-2--ps/---| x 1
A|--0-0-0-0-0-0-0-0-0-0-0-0-0-0-0-0-0-0-0-0-0-0-0--------|
E|-------------------------------------------------------|

Chorus (02:27) "Waste My time, become another..........."
e|-------------------------------------------------------|
B|-------------------------------------------------------|
G|--6-7-6---6-6-6-6-6-6----------------------------------|
D|--6-7-6---6-6-6-6-6-6---6--xx--7---6--xx--7------------| x 2
A|--4-5-4---4-4-4-4-4-4---6--xx--7---6--xx--7------------|
E|------------------------4--xx--5---4--xx--5------------|

Outro Chorus (02:36) "Waste my time with them,.........."
e|-------------------------------------------------------|
B|-------------------------------------------------------|
G|----------------------------------------------------|
D|--22--6b--22--4b--22--2b--22--2b-----------------------| x 2
A|--22--4b--22--2b--22--0b--22--0b-----------------------|
E|--00------00------00------00----------------------------|

Outro (2:46) "And back down, down, down, down..........."
e|-------------------------------------------------------|
B|-------------------------------------------------------|
G|-------------------------------------------------------|
D|--022--6--022--4--022--6--022--4-/-2-------------------| x 2
A|--022-----022-----022-----022--------------------------|
E|--000-----000-----000-----000--------------------------|

End on (02:56)
e|-------------|
B|-------------|
G|-------------|
D|--22---22----| x 1
A|--22---22----|
E|--00---00----|

Comments about this tab

jms122589 - 2005-04-09

haha hey sorry the name is wrong its suposed to be spalm 41 not ver nice city i was gunna taB very nice city parody of paradice city but i dident sorry


Add a comment/correction

Complimentary Christian Ringtones
Dadamobile and CGR have teamed up to bring your favorite Christian artists right to your phone. Sign up today and get 10 complementary ringtones!
Tab Country
Did you know CGR has a sister site w/ country guitar tabs? Well we do! Its called Tab Country. It has a great archive with a lot of country tabs.
Rockin Tabs
Are you looking for a site that has rock guitar tabs? Then Rockintabs.com is the place for you. It is a budding site with many rock guitar tabs. Submit your tab today.
Tab Gallery
Tab Gallery has a compilation of christian, rock, and country tabs all in one place. Come visit us.